ISO-10303-21;
HEADER;
/* Generated by software containing ST-Developer
 * from STEP Tools, Inc. (www.steptools.com) 
 */

FILE_DESCRIPTION(
/* description */ (''),
/* implementation_level */ '2;1');

FILE_NAME(
/* name */ '\\\\SERVER1\\dwgs\\product\\Screws\\11181.stp',
/* time_stamp */ '2016-09-23T13:26:26-04:00',
/* author */ ('cridley'),
/* organization */ (''),
/* preprocessor_version */ 'ST-DEVELOPER v15.6',
/* originating_system */ 'Autodesk Inventor 2015',
/* authorisation */ '');

FILE_SCHEMA (('AUTOMOTIVE_DESIGN { 1 0 10303 214 3 1 1 }'));
ENDSEC;

DATA;
#10=MECHANICAL_DESIGN_GEOMETRIC_PRESENTATION_REPRESENTATION('',(#13),#303);
#11=SHAPE_REPRESENTATION_RELATIONSHIP('SRR','None',#315,#12);
#12=ADVANCED_BREP_SHAPE_REPRESENTATION($,(#14),#302);
#13=STYLED_ITEM('',(#324),#14);
#14=MANIFOLD_SOLID_BREP('Solid1',#172);
#15=SPHERICAL_SURFACE('',#193,0.156);
#16=CONICAL_SURFACE('',#183,0.1725,45.);
#17=CONICAL_SURFACE('',#191,0.1725,45.);
#18=CONICAL_SURFACE('',#192,0.1725,45.);
#19=FACE_BOUND('',#42,.T.);
#20=FACE_BOUND('',#46,.T.);
#21=FACE_BOUND('',#50,.T.);
#22=CYLINDRICAL_SURFACE('',#179,0.1875);
#23=(
BOUNDED_CURVE()
B_SPLINE_CURVE(2,(#260,#261,#262),.UNSPECIFIED.,.F.,.F.)
B_SPLINE_CURVE_WITH_KNOTS((3,3),(0.,0.108368060870019),.UNSPECIFIED.)
CURVE()
GEOMETRIC_REPRESENTATION_ITEM()
RATIONAL_B_SPLINE_CURVE((1.,1.00388841807485,1.))
REPRESENTATION_ITEM('')
);
#24=(
BOUNDED_CURVE()
B_SPLINE_CURVE(2,(#265,#266,#267),.UNSPECIFIED.,.F.,.F.)
B_SPLINE_CURVE_WITH_KNOTS((3,3),(0.,0.108368060870019),.UNSPECIFIED.)
CURVE()
GEOMETRIC_REPRESENTATION_ITEM()
RATIONAL_B_SPLINE_CURVE((1.,1.00388841807485,1.))
REPRESENTATION_ITEM('')
);
#25=(
BOUNDED_CURVE()
B_SPLINE_CURVE(2,(#272,#273,#274),.UNSPECIFIED.,.F.,.F.)
B_SPLINE_CURVE_WITH_KNOTS((3,3),(0.,0.108368060870019),.UNSPECIFIED.)
CURVE()
GEOMETRIC_REPRESENTATION_ITEM()
RATIONAL_B_SPLINE_CURVE((1.,1.00388841807417,1.))
REPRESENTATION_ITEM('')
);
#26=(
BOUNDED_CURVE()
B_SPLINE_CURVE(2,(#278,#279,#280),.UNSPECIFIED.,.F.,.F.)
B_SPLINE_CURVE_WITH_KNOTS((3,3),(0.,0.108368060870019),.UNSPECIFIED.)
CURVE()
GEOMETRIC_REPRESENTATION_ITEM()
RATIONAL_B_SPLINE_CURVE((1.,1.00388841807417,1.))
REPRESENTATION_ITEM('')
);
#27=FACE_OUTER_BOUND('',#38,.T.);
#28=FACE_OUTER_BOUND('',#39,.T.);
#29=FACE_OUTER_BOUND('',#40,.T.);
#30=FACE_OUTER_BOUND('',#41,.T.);
#31=FACE_OUTER_BOUND('',#43,.T.);
#32=FACE_OUTER_BOUND('',#44,.T.);
#33=FACE_OUTER_BOUND('',#45,.T.);
#34=FACE_OUTER_BOUND('',#47,.T.);
#35=FACE_OUTER_BOUND('',#48,.T.);
#36=FACE_OUTER_BOUND('',#49,.T.);
#37=FACE_OUTER_BOUND('',#51,.T.);
#38=EDGE_LOOP('',(#113,#114,#115,#116));
#39=EDGE_LOOP('',(#117,#118,#119,#120,#121,#122));
#40=EDGE_LOOP('',(#123,#124,#125,#126,#127,#128));
#41=EDGE_LOOP('',(#129));
#42=EDGE_LOOP('',(#130,#131,#132,#133,#134,#135,#136,#137));
#43=EDGE_LOOP('',(#138,#139,#140,#141));
#44=EDGE_LOOP('',(#142,#143));
#45=EDGE_LOOP('',(#144));
#46=EDGE_LOOP('',(#145));
#47=EDGE_LOOP('',(#146,#147));
#48=EDGE_LOOP('',(#148,#149,#150,#151));
#49=EDGE_LOOP('',(#152));
#50=EDGE_LOOP('',(#153));
#51=EDGE_LOOP('',(#154));
#52=LINE('',#250,#60);
#53=LINE('',#253,#61);
#54=LINE('',#256,#62);
#55=LINE('',#258,#63);
#56=LINE('',#264,#64);
#57=LINE('',#270,#65);
#58=LINE('',#276,#66);
#59=LINE('',#281,#67);
#60=VECTOR('',#200,0.371515813929905);
#61=VECTOR('',#203,0.371515813929905);
#62=VECTOR('',#206,0.044);
#63=VECTOR('',#207,0.044);
#64=VECTOR('',#208,0.310844012327727);
#65=VECTOR('',#211,0.044);
#66=VECTOR('',#212,0.310844012327727);
#67=VECTOR('',#213,0.044);
#68=CIRCLE('',#175,0.1875);
#69=CIRCLE('',#176,0.1875);
#70=CIRCLE('',#180,0.1875);
#71=CIRCLE('',#181,0.1875);
#72=CIRCLE('',#182,0.1875);
#73=CIRCLE('',#184,0.1575);
#74=CIRCLE('',#187,0.1575);
#75=CIRCLE('',#188,0.113);
#76=CIRCLE('',#190,0.1575);
#77=VERTEX_POINT('',#246);
#78=VERTEX_POINT('',#247);
#79=VERTEX_POINT('',#249);
#80=VERTEX_POINT('',#251);
#81=VERTEX_POINT('',#255);
#82=VERTEX_POINT('',#257);
#83=VERTEX_POINT('',#259);
#84=VERTEX_POINT('',#263);
#85=VERTEX_POINT('',#269);
#86=VERTEX_POINT('',#271);
#87=VERTEX_POINT('',#275);
#88=VERTEX_POINT('',#277);
#89=VERTEX_POINT('',#283);
#90=VERTEX_POINT('',#291);
#91=VERTEX_POINT('',#293);
#92=EDGE_CURVE('',#77,#78,#68,.T.);
#93=EDGE_CURVE('',#79,#77,#52,.T.);
#94=EDGE_CURVE('',#80,#79,#69,.T.);
#95=EDGE_CURVE('',#80,#78,#53,.T.);
#96=EDGE_CURVE('',#78,#81,#54,.T.);
#97=EDGE_CURVE('',#82,#80,#55,.T.);
#98=EDGE_CURVE('',#83,#82,#23,.T.);
#99=EDGE_CURVE('',#84,#83,#56,.T.);
#100=EDGE_CURVE('',#81,#84,#24,.T.);
#101=EDGE_CURVE('',#85,#77,#57,.T.);
#102=EDGE_CURVE('',#86,#85,#25,.T.);
#103=EDGE_CURVE('',#87,#86,#58,.T.);
#104=EDGE_CURVE('',#88,#87,#26,.T.);
#105=EDGE_CURVE('',#79,#88,#59,.T.);
#106=EDGE_CURVE('',#89,#89,#70,.T.);
#107=EDGE_CURVE('',#81,#82,#71,.T.);
#108=EDGE_CURVE('',#88,#85,#72,.T.);
#109=EDGE_CURVE('',#84,#83,#73,.T.);
#110=EDGE_CURVE('',#90,#90,#74,.T.);
#111=EDGE_CURVE('',#91,#91,#75,.T.);
#112=EDGE_CURVE('',#87,#86,#76,.T.);
#113=ORIENTED_EDGE('',*,*,#92,.F.);
#114=ORIENTED_EDGE('',*,*,#93,.F.);
#115=ORIENTED_EDGE('',*,*,#94,.F.);
#116=ORIENTED_EDGE('',*,*,#95,.T.);
#117=ORIENTED_EDGE('',*,*,#96,.F.);
#118=ORIENTED_EDGE('',*,*,#95,.F.);
#119=ORIENTED_EDGE('',*,*,#97,.F.);
#120=ORIENTED_EDGE('',*,*,#98,.F.);
#121=ORIENTED_EDGE('',*,*,#99,.F.);
#122=ORIENTED_EDGE('',*,*,#100,.F.);
#123=ORIENTED_EDGE('',*,*,#101,.F.);
#124=ORIENTED_EDGE('',*,*,#102,.F.);
#125=ORIENTED_EDGE('',*,*,#103,.F.);
#126=ORIENTED_EDGE('',*,*,#104,.F.);
#127=ORIENTED_EDGE('',*,*,#105,.F.);
#128=ORIENTED_EDGE('',*,*,#93,.T.);
#129=ORIENTED_EDGE('',*,*,#106,.F.);
#130=ORIENTED_EDGE('',*,*,#101,.T.);
#131=ORIENTED_EDGE('',*,*,#92,.T.);
#132=ORIENTED_EDGE('',*,*,#96,.T.);
#133=ORIENTED_EDGE('',*,*,#107,.T.);
#134=ORIENTED_EDGE('',*,*,#97,.T.);
#135=ORIENTED_EDGE('',*,*,#94,.T.);
#136=ORIENTED_EDGE('',*,*,#105,.T.);
#137=ORIENTED_EDGE('',*,*,#108,.T.);
#138=ORIENTED_EDGE('',*,*,#100,.T.);
#139=ORIENTED_EDGE('',*,*,#109,.T.);
#140=ORIENTED_EDGE('',*,*,#98,.T.);
#141=ORIENTED_EDGE('',*,*,#107,.F.);
#142=ORIENTED_EDGE('',*,*,#99,.T.);
#143=ORIENTED_EDGE('',*,*,#109,.F.);
#144=ORIENTED_EDGE('',*,*,#110,.T.);
#145=ORIENTED_EDGE('',*,*,#111,.F.);
#146=ORIENTED_EDGE('',*,*,#103,.T.);
#147=ORIENTED_EDGE('',*,*,#112,.F.);
#148=ORIENTED_EDGE('',*,*,#102,.T.);
#149=ORIENTED_EDGE('',*,*,#108,.F.);
#150=ORIENTED_EDGE('',*,*,#104,.T.);
#151=ORIENTED_EDGE('',*,*,#112,.T.);
#152=ORIENTED_EDGE('',*,*,#106,.T.);
#153=ORIENTED_EDGE('',*,*,#110,.F.);
#154=ORIENTED_EDGE('',*,*,#111,.T.);
#155=PLANE('',#174);
#156=PLANE('',#177);
#157=PLANE('',#178);
#158=PLANE('',#185);
#159=PLANE('',#186);
#160=PLANE('',#189);
#161=ADVANCED_FACE('',(#27),#155,.F.);
#162=ADVANCED_FACE('',(#28),#156,.F.);
#163=ADVANCED_FACE('',(#29),#157,.F.);
#164=ADVANCED_FACE('',(#30,#19),#22,.T.);
#165=ADVANCED_FACE('',(#31),#16,.T.);
#166=ADVANCED_FACE('',(#32),#158,.T.);
#167=ADVANCED_FACE('',(#33,#20),#159,.T.);
#168=ADVANCED_FACE('',(#34),#160,.T.);
#169=ADVANCED_FACE('',(#35),#17,.T.);
#170=ADVANCED_FACE('',(#36,#21),#18,.T.);
#171=ADVANCED_FACE('',(#37),#15,.T.);
#172=CLOSED_SHELL('',(#161,#162,#163,#164,#165,#166,#167,#168,#169,#170,
#171));
#173=AXIS2_PLACEMENT_3D('placement',#244,#194,#195);
#174=AXIS2_PLACEMENT_3D('',#245,#196,#197);
#175=AXIS2_PLACEMENT_3D('',#248,#198,#199);
#176=AXIS2_PLACEMENT_3D('',#252,#201,#202);
#177=AXIS2_PLACEMENT_3D('',#254,#204,#205);
#178=AXIS2_PLACEMENT_3D('',#268,#209,#210);
#179=AXIS2_PLACEMENT_3D('',#282,#214,#215);
#180=AXIS2_PLACEMENT_3D('',#284,#216,#217);
#181=AXIS2_PLACEMENT_3D('',#285,#218,#219);
#182=AXIS2_PLACEMENT_3D('',#286,#220,#221);
#183=AXIS2_PLACEMENT_3D('',#287,#222,#223);
#184=AXIS2_PLACEMENT_3D('',#288,#224,#225);
#185=AXIS2_PLACEMENT_3D('',#289,#226,#227);
#186=AXIS2_PLACEMENT_3D('',#290,#228,#229);
#187=AXIS2_PLACEMENT_3D('',#292,#230,#231);
#188=AXIS2_PLACEMENT_3D('',#294,#232,#233);
#189=AXIS2_PLACEMENT_3D('',#295,#234,#235);
#190=AXIS2_PLACEMENT_3D('',#296,#236,#237);
#191=AXIS2_PLACEMENT_3D('',#297,#238,#239);
#192=AXIS2_PLACEMENT_3D('',#298,#240,#241);
#193=AXIS2_PLACEMENT_3D('',#299,#242,#243);
#194=DIRECTION('axis',(0.,0.,1.));
#195=DIRECTION('refdir',(1.,0.,0.));
#196=DIRECTION('center_axis',(0.,0.,-1.));
#197=DIRECTION('ref_axis',(0.,1.,0.));
#198=DIRECTION('center_axis',(0.,0.,-1.));
#199=DIRECTION('ref_axis',(0.,1.,0.));
#200=DIRECTION('',(1.,0.,0.));
#201=DIRECTION('center_axis',(0.,0.,-1.));
#202=DIRECTION('ref_axis',(0.,1.,0.));
#203=DIRECTION('',(1.,0.,0.));
#204=DIRECTION('center_axis',(0.,-1.,-7.38337295584936E-17));
#205=DIRECTION('ref_axis',(0.,7.04991620636974E-17,-1.));
#206=DIRECTION('',(0.,0.,1.));
#207=DIRECTION('',(0.,0.,-1.));
#208=DIRECTION('',(-1.,0.,0.));
#209=DIRECTION('center_axis',(0.,1.,2.21501188675481E-16));
#210=DIRECTION('ref_axis',(0.,-2.20309881449055E-16,1.));
#211=DIRECTION('',(0.,0.,-1.));
#212=DIRECTION('',(1.,0.,0.));
#213=DIRECTION('',(0.,0.,1.));
#214=DIRECTION('center_axis',(0.,0.,-1.));
#215=DIRECTION('ref_axis',(0.,1.,0.));
#216=DIRECTION('center_axis',(0.,0.,-1.));
#217=DIRECTION('ref_axis',(1.,0.,0.));
#218=DIRECTION('center_axis',(0.,0.,-1.));
#219=DIRECTION('ref_axis',(1.,0.,0.));
#220=DIRECTION('center_axis',(0.,0.,-1.));
#221=DIRECTION('ref_axis',(1.,0.,0.));
#222=DIRECTION('center_axis',(0.,0.,-1.));
#223=DIRECTION('ref_axis',(0.,1.,0.));
#224=DIRECTION('center_axis',(0.,0.,-1.));
#225=DIRECTION('ref_axis',(1.,0.,0.));
#226=DIRECTION('center_axis',(0.,0.,1.));
#227=DIRECTION('ref_axis',(1.,0.,0.));
#228=DIRECTION('center_axis',(0.,0.,-1.));
#229=DIRECTION('ref_axis',(-1.,0.,0.));
#230=DIRECTION('center_axis',(0.,0.,-1.));
#231=DIRECTION('ref_axis',(1.,0.,0.));
#232=DIRECTION('center_axis',(0.,0.,-1.));
#233=DIRECTION('ref_axis',(1.,0.,0.));
#234=DIRECTION('center_axis',(0.,0.,1.));
#235=DIRECTION('ref_axis',(1.,0.,0.));
#236=DIRECTION('center_axis',(0.,0.,-1.));
#237=DIRECTION('ref_axis',(1.,0.,0.));
#238=DIRECTION('center_axis',(0.,0.,-1.));
#239=DIRECTION('ref_axis',(0.,1.,0.));
#240=DIRECTION('center_axis',(0.,0.,1.));
#241=DIRECTION('ref_axis',(0.,1.,0.));
#242=DIRECTION('center_axis',(6.12323399573676E-17,0.,1.));
#243=DIRECTION('ref_axis',(1.,0.,0.));
#244=CARTESIAN_POINT('',(0.,0.,0.));
#245=CARTESIAN_POINT('Origin',(0.,-0.0255,0.283799988377498));
#246=CARTESIAN_POINT('',(0.185757906964953,0.0255,0.283799988377498));
#247=CARTESIAN_POINT('',(0.185757906964953,-0.0255,0.283799988377498));
#248=CARTESIAN_POINT('Origin',(0.,0.,0.283799988377498));
#249=CARTESIAN_POINT('',(-0.185757906964953,0.0255,0.283799988377498));
#250=CARTESIAN_POINT('',(0.,0.0255,0.283799988377498));
#251=CARTESIAN_POINT('',(-0.185757906964953,-0.0255,0.283799988377498));
#252=CARTESIAN_POINT('Origin',(0.,0.,0.283799988377498));
#253=CARTESIAN_POINT('',(0.,-0.0255,0.283799988377498));
#254=CARTESIAN_POINT('Origin',(0.,-0.0255,0.357799988377498));
#255=CARTESIAN_POINT('',(0.185757906964953,-0.0255,0.327799988377498));
#256=CARTESIAN_POINT('',(0.185757906964953,-0.0255,0.178899994188749));
#257=CARTESIAN_POINT('',(-0.185757906964953,-0.0255,0.327799988377498));
#258=CARTESIAN_POINT('',(-0.185757906964953,-0.0255,0.178899994188749));
#259=CARTESIAN_POINT('',(-0.155422006163863,-0.0255,0.357799988377498));
#260=CARTESIAN_POINT('Ctrl Pts',(-0.155422006163863,-0.0255,0.357799988377498));
#261=CARTESIAN_POINT('Ctrl Pts',(-0.169271004355484,-0.0255,0.344133708489871));
#262=CARTESIAN_POINT('Ctrl Pts',(-0.185757906964953,-0.0255,0.327799988377498));
#263=CARTESIAN_POINT('',(0.155422006163863,-0.0255,0.357799988377498));
#264=CARTESIAN_POINT('',(0.,-0.0255,0.357799988377498));
#265=CARTESIAN_POINT('Ctrl Pts',(0.185757906964953,-0.0255,0.327799988377498));
#266=CARTESIAN_POINT('Ctrl Pts',(0.169271004355484,-0.0255,0.344133708489871));
#267=CARTESIAN_POINT('Ctrl Pts',(0.155422006163863,-0.0255,0.357799988377498));
#268=CARTESIAN_POINT('Origin',(0.,0.0255,0.283799988377498));
#269=CARTESIAN_POINT('',(0.185757906964953,0.0255,0.327799988377498));
#270=CARTESIAN_POINT('',(0.185757906964953,0.0255,0.178899994188749));
#271=CARTESIAN_POINT('',(0.155422006163863,0.0255,0.357799988377498));
#272=CARTESIAN_POINT('Ctrl Pts',(0.155422006163863,0.0255,0.357799988377498));
#273=CARTESIAN_POINT('Ctrl Pts',(0.169271004355478,0.0255,0.344133708489876));
#274=CARTESIAN_POINT('Ctrl Pts',(0.185757906964953,0.0255,0.327799988377498));
#275=CARTESIAN_POINT('',(-0.155422006163863,0.0255,0.357799988377498));
#276=CARTESIAN_POINT('',(0.,0.0255,0.357799988377498));
#277=CARTESIAN_POINT('',(-0.185757906964953,0.0255,0.327799988377498));
#278=CARTESIAN_POINT('Ctrl Pts',(-0.185757906964953,0.0255,0.327799988377498));
#279=CARTESIAN_POINT('Ctrl Pts',(-0.169271004355478,0.0255,0.344133708489876));
#280=CARTESIAN_POINT('Ctrl Pts',(-0.155422006163863,0.0255,0.357799988377498));
#281=CARTESIAN_POINT('',(-0.185757906964953,0.0255,0.178899994188749));
#282=CARTESIAN_POINT('Origin',(0.,0.,0.178899994188749));
#283=CARTESIAN_POINT('',(0.,0.1875,0.03));
#284=CARTESIAN_POINT('Origin',(0.,0.,0.03));
#285=CARTESIAN_POINT('Origin',(0.,0.,0.327799988377498));
#286=CARTESIAN_POINT('Origin',(0.,0.,0.327799988377498));
#287=CARTESIAN_POINT('Origin',(0.,0.,0.342799988377498));
#288=CARTESIAN_POINT('Origin',(0.,0.,0.357799988377498));
#289=CARTESIAN_POINT('Origin',(0.,0.1575,0.357799988377498));
#290=CARTESIAN_POINT('Origin',(0.,0.,0.));
#291=CARTESIAN_POINT('',(0.,0.1575,2.42636843387368E-33));
#292=CARTESIAN_POINT('Origin',(0.,0.,2.42636843387368E-33));
#293=CARTESIAN_POINT('',(0.,0.113,1.38385088303651E-17));
#294=CARTESIAN_POINT('Origin',(0.,0.,1.63910879619856E-17));
#295=CARTESIAN_POINT('Origin',(0.,0.1575,0.357799988377498));
#296=CARTESIAN_POINT('Origin',(0.,0.,0.357799988377498));
#297=CARTESIAN_POINT('Origin',(0.,0.,0.342799988377498));
#298=CARTESIAN_POINT('Origin',(0.,0.,0.015));
#299=CARTESIAN_POINT('Origin',(0.,-3.39021230662563E-19,0.107549988377498));
#300=UNCERTAINTY_MEASURE_WITH_UNIT(LENGTH_MEASURE(0.000393700787401575),
#304,'DISTANCE_ACCURACY_VALUE',
'Maximum model space distance between geometric entities at asserted c
onnectivities');
#301=UNCERTAINTY_MEASURE_WITH_UNIT(LENGTH_MEASURE(1.E-6),#305,
'DISTANCE_ACCURACY_VALUE',
'Maximum model space distance between geometric entities at asserted c
onnectivities');
#302=(
GEOMETRIC_REPRESENTATION_CONTEXT(3)
GLOBAL_UNCERTAINTY_ASSIGNED_CONTEXT((#300))
GLOBAL_UNIT_ASSIGNED_CONTEXT((#304,#310,#307))
REPRESENTATION_CONTEXT('','3D')
);
#303=(
GEOMETRIC_REPRESENTATION_CONTEXT(3)
GLOBAL_UNCERTAINTY_ASSIGNED_CONTEXT((#301))
GLOBAL_UNIT_ASSIGNED_CONTEXT((#305,#310,#307))
REPRESENTATION_CONTEXT('','3D')
);
#304=(
CONVERSION_BASED_UNIT('__CONSTANT UNIT inch',#306)
LENGTH_UNIT()
NAMED_UNIT(#309)
);
#305=(
LENGTH_UNIT()
NAMED_UNIT(*)
SI_UNIT(.MILLI.,.METRE.)
);
#306=LENGTH_MEASURE_WITH_UNIT(LENGTH_MEASURE(25.4),#305);
#307=(
NAMED_UNIT(*)
SI_UNIT($,.STERADIAN.)
SOLID_ANGLE_UNIT()
);
#308=DIMENSIONAL_EXPONENTS(0.,0.,0.,0.,0.,0.,0.);
#309=DIMENSIONAL_EXPONENTS(1.,0.,0.,0.,0.,0.,0.);
#310=(
CONVERSION_BASED_UNIT('degree',#312)
NAMED_UNIT(#308)
PLANE_ANGLE_UNIT()
);
#311=(
NAMED_UNIT(*)
PLANE_ANGLE_UNIT()
SI_UNIT($,.RADIAN.)
);
#312=PLANE_ANGLE_MEASURE_WITH_UNIT(PLANE_ANGLE_MEASURE(0.01745329252),#311);
#313=SHAPE_DEFINITION_REPRESENTATION(#314,#315);
#314=PRODUCT_DEFINITION_SHAPE('',$,#317);
#315=SHAPE_REPRESENTATION('',(#173),#302);
#316=PRODUCT_DEFINITION_CONTEXT('part definition',#321,'design');
#317=PRODUCT_DEFINITION('11181','11181',#318,#316);
#318=PRODUCT_DEFINITION_FORMATION('',$,#323);
#319=PRODUCT_RELATED_PRODUCT_CATEGORY('11181','11181',(#323));
#320=APPLICATION_PROTOCOL_DEFINITION('international standard',
'automotive_design',2009,#321);
#321=APPLICATION_CONTEXT(
'Core Data for Automotive Mechanical Design Process');
#322=PRODUCT_CONTEXT('part definition',#321,'mechanical');
#323=PRODUCT('11181','11181',$,(#322));
#324=PRESENTATION_STYLE_ASSIGNMENT((#325));
#325=SURFACE_STYLE_USAGE(.BOTH.,#326);
#326=SURFACE_SIDE_STYLE($,(#327));
#327=SURFACE_STYLE_FILL_AREA(#328);
#328=FILL_AREA_STYLE($,(#329));
#329=FILL_AREA_STYLE_COLOUR($,#330);
#330=COLOUR_RGB('',0.996078431372549,0.996078431372549,1.);
ENDSEC;
END-ISO-10303-21;
