ISO-10303-21;
HEADER;
/* Generated by software containing ST-Developer
 * from STEP Tools, Inc. (www.steptools.com) 
 */

FILE_DESCRIPTION(
/* description */ (''),
/* implementation_level */ '2;1');

FILE_NAME(
/* name */ '\\\\SERVER1\\dwgs\\product\\Screws\\11939.stp',
/* time_stamp */ '2016-09-23T13:27:47-04:00',
/* author */ ('cridley'),
/* organization */ (''),
/* preprocessor_version */ 'ST-DEVELOPER v15.6',
/* originating_system */ 'Autodesk Inventor 2015',
/* authorisation */ '');

FILE_SCHEMA (('AUTOMOTIVE_DESIGN { 1 0 10303 214 3 1 1 }'));
ENDSEC;

DATA;
#10=MECHANICAL_DESIGN_GEOMETRIC_PRESENTATION_REPRESENTATION('',(#13),#297);
#11=SHAPE_REPRESENTATION_RELATIONSHIP('SRR','None',#309,#12);
#12=ADVANCED_BREP_SHAPE_REPRESENTATION($,(#14),#296);
#13=STYLED_ITEM('',(#318),#14);
#14=MANIFOLD_SOLID_BREP('Solid1',#182);
#15=LINE('',#258,#33);
#16=LINE('',#260,#34);
#17=LINE('',#262,#35);
#18=LINE('',#264,#36);
#19=LINE('',#266,#37);
#20=LINE('',#267,#38);
#21=LINE('',#271,#39);
#22=LINE('',#273,#40);
#23=LINE('',#274,#41);
#24=LINE('',#277,#42);
#25=LINE('',#278,#43);
#26=LINE('',#281,#44);
#27=LINE('',#282,#45);
#28=LINE('',#285,#46);
#29=LINE('',#286,#47);
#30=LINE('',#289,#48);
#31=LINE('',#290,#49);
#32=LINE('',#292,#50);
#33=VECTOR('',#212,0.288675134594813);
#34=VECTOR('',#213,0.288675134594813);
#35=VECTOR('',#214,0.288675134594813);
#36=VECTOR('',#215,0.288675134594813);
#37=VECTOR('',#216,0.288675134594813);
#38=VECTOR('',#217,0.288675134594813);
#39=VECTOR('',#222,0.375);
#40=VECTOR('',#223,0.288675134594813);
#41=VECTOR('',#224,0.375);
#42=VECTOR('',#227,0.375);
#43=VECTOR('',#228,0.288675134594813);
#44=VECTOR('',#231,0.375);
#45=VECTOR('',#232,0.288675134594813);
#46=VECTOR('',#235,0.375);
#47=VECTOR('',#236,0.288675134594813);
#48=VECTOR('',#239,0.375);
#49=VECTOR('',#240,0.288675134594813);
#50=VECTOR('',#243,0.288675134594813);
#51=PLANE('',#189);
#52=PLANE('',#191);
#53=PLANE('',#192);
#54=PLANE('',#193);
#55=PLANE('',#194);
#56=PLANE('',#195);
#57=PLANE('',#196);
#58=PLANE('',#197);
#59=CYLINDRICAL_SURFACE('',#187,0.46875);
#60=FACE_BOUND('',#75,.T.);
#61=FACE_BOUND('',#77,.T.);
#62=FACE_BOUND('',#79,.T.);
#63=FACE_OUTER_BOUND('',#74,.T.);
#64=FACE_OUTER_BOUND('',#76,.T.);
#65=FACE_OUTER_BOUND('',#78,.T.);
#66=FACE_OUTER_BOUND('',#80,.T.);
#67=FACE_OUTER_BOUND('',#81,.T.);
#68=FACE_OUTER_BOUND('',#82,.T.);
#69=FACE_OUTER_BOUND('',#83,.T.);
#70=FACE_OUTER_BOUND('',#84,.T.);
#71=FACE_OUTER_BOUND('',#85,.T.);
#72=FACE_OUTER_BOUND('',#86,.T.);
#73=FACE_OUTER_BOUND('',#87,.T.);
#74=EDGE_LOOP('',(#127));
#75=EDGE_LOOP('',(#128));
#76=EDGE_LOOP('',(#129));
#77=EDGE_LOOP('',(#130));
#78=EDGE_LOOP('',(#131));
#79=EDGE_LOOP('',(#132,#133,#134,#135,#136,#137));
#80=EDGE_LOOP('',(#138));
#81=EDGE_LOOP('',(#139,#140,#141,#142));
#82=EDGE_LOOP('',(#143,#144,#145,#146));
#83=EDGE_LOOP('',(#147,#148,#149,#150));
#84=EDGE_LOOP('',(#151,#152,#153,#154));
#85=EDGE_LOOP('',(#155,#156,#157,#158));
#86=EDGE_LOOP('',(#159,#160,#161,#162));
#87=EDGE_LOOP('',(#163,#164,#165,#166,#167,#168));
#88=CIRCLE('',#185,0.42875);
#89=CIRCLE('',#186,0.46875);
#90=CIRCLE('',#188,0.46875);
#91=VERTEX_POINT('',#248);
#92=VERTEX_POINT('',#250);
#93=VERTEX_POINT('',#253);
#94=VERTEX_POINT('',#256);
#95=VERTEX_POINT('',#257);
#96=VERTEX_POINT('',#259);
#97=VERTEX_POINT('',#261);
#98=VERTEX_POINT('',#263);
#99=VERTEX_POINT('',#265);
#100=VERTEX_POINT('',#270);
#101=VERTEX_POINT('',#272);
#102=VERTEX_POINT('',#276);
#103=VERTEX_POINT('',#280);
#104=VERTEX_POINT('',#284);
#105=VERTEX_POINT('',#288);
#106=EDGE_CURVE('',#91,#91,#88,.T.);
#107=EDGE_CURVE('',#92,#92,#89,.T.);
#108=EDGE_CURVE('',#93,#93,#90,.T.);
#109=EDGE_CURVE('',#94,#95,#15,.T.);
#110=EDGE_CURVE('',#95,#96,#16,.T.);
#111=EDGE_CURVE('',#96,#97,#17,.T.);
#112=EDGE_CURVE('',#97,#98,#18,.T.);
#113=EDGE_CURVE('',#98,#99,#19,.T.);
#114=EDGE_CURVE('',#99,#94,#20,.T.);
#115=EDGE_CURVE('',#94,#100,#21,.T.);
#116=EDGE_CURVE('',#100,#101,#22,.T.);
#117=EDGE_CURVE('',#95,#101,#23,.T.);
#118=EDGE_CURVE('',#99,#102,#24,.T.);
#119=EDGE_CURVE('',#102,#100,#25,.T.);
#120=EDGE_CURVE('',#98,#103,#26,.T.);
#121=EDGE_CURVE('',#103,#102,#27,.T.);
#122=EDGE_CURVE('',#97,#104,#28,.T.);
#123=EDGE_CURVE('',#104,#103,#29,.T.);
#124=EDGE_CURVE('',#96,#105,#30,.T.);
#125=EDGE_CURVE('',#105,#104,#31,.T.);
#126=EDGE_CURVE('',#101,#105,#32,.T.);
#127=ORIENTED_EDGE('',*,*,#106,.T.);
#128=ORIENTED_EDGE('',*,*,#107,.T.);
#129=ORIENTED_EDGE('',*,*,#108,.T.);
#130=ORIENTED_EDGE('',*,*,#107,.F.);
#131=ORIENTED_EDGE('',*,*,#106,.F.);
#132=ORIENTED_EDGE('',*,*,#109,.T.);
#133=ORIENTED_EDGE('',*,*,#110,.T.);
#134=ORIENTED_EDGE('',*,*,#111,.T.);
#135=ORIENTED_EDGE('',*,*,#112,.T.);
#136=ORIENTED_EDGE('',*,*,#113,.T.);
#137=ORIENTED_EDGE('',*,*,#114,.T.);
#138=ORIENTED_EDGE('',*,*,#108,.F.);
#139=ORIENTED_EDGE('',*,*,#109,.F.);
#140=ORIENTED_EDGE('',*,*,#115,.T.);
#141=ORIENTED_EDGE('',*,*,#116,.T.);
#142=ORIENTED_EDGE('',*,*,#117,.F.);
#143=ORIENTED_EDGE('',*,*,#114,.F.);
#144=ORIENTED_EDGE('',*,*,#118,.T.);
#145=ORIENTED_EDGE('',*,*,#119,.T.);
#146=ORIENTED_EDGE('',*,*,#115,.F.);
#147=ORIENTED_EDGE('',*,*,#113,.F.);
#148=ORIENTED_EDGE('',*,*,#120,.T.);
#149=ORIENTED_EDGE('',*,*,#121,.T.);
#150=ORIENTED_EDGE('',*,*,#118,.F.);
#151=ORIENTED_EDGE('',*,*,#112,.F.);
#152=ORIENTED_EDGE('',*,*,#122,.T.);
#153=ORIENTED_EDGE('',*,*,#123,.T.);
#154=ORIENTED_EDGE('',*,*,#120,.F.);
#155=ORIENTED_EDGE('',*,*,#111,.F.);
#156=ORIENTED_EDGE('',*,*,#124,.T.);
#157=ORIENTED_EDGE('',*,*,#125,.T.);
#158=ORIENTED_EDGE('',*,*,#122,.F.);
#159=ORIENTED_EDGE('',*,*,#110,.F.);
#160=ORIENTED_EDGE('',*,*,#117,.T.);
#161=ORIENTED_EDGE('',*,*,#126,.T.);
#162=ORIENTED_EDGE('',*,*,#124,.F.);
#163=ORIENTED_EDGE('',*,*,#126,.F.);
#164=ORIENTED_EDGE('',*,*,#116,.F.);
#165=ORIENTED_EDGE('',*,*,#119,.F.);
#166=ORIENTED_EDGE('',*,*,#121,.F.);
#167=ORIENTED_EDGE('',*,*,#123,.F.);
#168=ORIENTED_EDGE('',*,*,#125,.F.);
#169=CONICAL_SURFACE('',#184,0.44875,45.);
#170=CONICAL_SURFACE('',#190,0.336419010194552,60.);
#171=ADVANCED_FACE('',(#63,#60),#169,.T.);
#172=ADVANCED_FACE('',(#64,#61),#59,.T.);
#173=ADVANCED_FACE('',(#65,#62),#51,.T.);
#174=ADVANCED_FACE('',(#66),#170,.T.);
#175=ADVANCED_FACE('',(#67),#52,.F.);
#176=ADVANCED_FACE('',(#68),#53,.F.);
#177=ADVANCED_FACE('',(#69),#54,.F.);
#178=ADVANCED_FACE('',(#70),#55,.F.);
#179=ADVANCED_FACE('',(#71),#56,.F.);
#180=ADVANCED_FACE('',(#72),#57,.F.);
#181=ADVANCED_FACE('',(#73),#58,.F.);
#182=CLOSED_SHELL('',(#171,#172,#173,#174,#175,#176,#177,#178,#179,#180,
#181));
#183=AXIS2_PLACEMENT_3D('placement',#246,#198,#199);
#184=AXIS2_PLACEMENT_3D('',#247,#200,#201);
#185=AXIS2_PLACEMENT_3D('',#249,#202,#203);
#186=AXIS2_PLACEMENT_3D('',#251,#204,#205);
#187=AXIS2_PLACEMENT_3D('',#252,#206,#207);
#188=AXIS2_PLACEMENT_3D('',#254,#208,#209);
#189=AXIS2_PLACEMENT_3D('',#255,#210,#211);
#190=AXIS2_PLACEMENT_3D('',#268,#218,#219);
#191=AXIS2_PLACEMENT_3D('',#269,#220,#221);
#192=AXIS2_PLACEMENT_3D('',#275,#225,#226);
#193=AXIS2_PLACEMENT_3D('',#279,#229,#230);
#194=AXIS2_PLACEMENT_3D('',#283,#233,#234);
#195=AXIS2_PLACEMENT_3D('',#287,#237,#238);
#196=AXIS2_PLACEMENT_3D('',#291,#241,#242);
#197=AXIS2_PLACEMENT_3D('',#293,#244,#245);
#198=DIRECTION('axis',(0.,0.,1.));
#199=DIRECTION('refdir',(1.,0.,0.));
#200=DIRECTION('center_axis',(0.,0.,-1.));
#201=DIRECTION('ref_axis',(-1.,0.,0.));
#202=DIRECTION('center_axis',(0.,0.,-1.));
#203=DIRECTION('ref_axis',(-1.,0.,0.));
#204=DIRECTION('center_axis',(0.,0.,1.));
#205=DIRECTION('ref_axis',(-1.,0.,0.));
#206=DIRECTION('center_axis',(0.,0.,-1.));
#207=DIRECTION('ref_axis',(-1.,0.,0.));
#208=DIRECTION('center_axis',(0.,0.,1.));
#209=DIRECTION('ref_axis',(-1.,0.,0.));
#210=DIRECTION('center_axis',(0.,0.,1.));
#211=DIRECTION('ref_axis',(1.,0.,0.));
#212=DIRECTION('',(-4.54243154263834E-16,-1.,0.));
#213=DIRECTION('',(-0.866025403784439,-0.5,0.));
#214=DIRECTION('',(-0.866025403784438,0.5,0.));
#215=DIRECTION('',(0.,1.,0.));
#216=DIRECTION('',(0.866025403784438,0.5,0.));
#217=DIRECTION('',(0.866025403784439,-0.5,0.));
#218=DIRECTION('center_axis',(0.,0.,1.));
#219=DIRECTION('ref_axis',(-1.,0.,0.));
#220=DIRECTION('center_axis',(1.,-4.54243154263834E-16,0.));
#221=DIRECTION('ref_axis',(-4.22994972382185E-16,-1.,0.));
#222=DIRECTION('',(0.,0.,-1.));
#223=DIRECTION('',(-4.54243154263834E-16,-1.,0.));
#224=DIRECTION('',(0.,0.,-1.));
#225=DIRECTION('center_axis',(0.5,0.866025403784439,0.));
#226=DIRECTION('ref_axis',(0.866025403784439,-0.5,0.));
#227=DIRECTION('',(0.,0.,-1.));
#228=DIRECTION('',(0.866025403784439,-0.5,0.));
#229=DIRECTION('center_axis',(-0.5,0.866025403784439,0.));
#230=DIRECTION('ref_axis',(0.866025403784439,0.5,0.));
#231=DIRECTION('',(0.,0.,-1.));
#232=DIRECTION('',(0.866025403784439,0.5,0.));
#233=DIRECTION('center_axis',(-1.,0.,0.));
#234=DIRECTION('ref_axis',(0.,1.,0.));
#235=DIRECTION('',(0.,0.,-1.));
#236=DIRECTION('',(0.,1.,0.));
#237=DIRECTION('center_axis',(-0.5,-0.866025403784439,0.));
#238=DIRECTION('ref_axis',(-0.866025403784438,0.5,0.));
#239=DIRECTION('',(0.,0.,-1.));
#240=DIRECTION('',(-0.866025403784438,0.5,0.));
#241=DIRECTION('center_axis',(0.5,-0.866025403784439,0.));
#242=DIRECTION('ref_axis',(-0.866025403784439,-0.5,0.));
#243=DIRECTION('',(-0.866025403784439,-0.5,0.));
#244=DIRECTION('center_axis',(0.,0.,-1.));
#245=DIRECTION('ref_axis',(-1.,0.,0.));
#246=CARTESIAN_POINT('',(0.,0.,0.));
#247=CARTESIAN_POINT('Origin',(0.,0.,-0.02));
#248=CARTESIAN_POINT('',(0.42875,-5.25067315134428E-17,0.));
#249=CARTESIAN_POINT('Origin',(0.,0.,0.));
#250=CARTESIAN_POINT('',(0.46875,5.74053187100322E-17,-0.04));
#251=CARTESIAN_POINT('Origin',(0.,0.,-0.04));
#252=CARTESIAN_POINT('Origin',(0.,0.,0.));
#253=CARTESIAN_POINT('',(0.46875,5.74053187100322E-17,-0.854367061317363));
#254=CARTESIAN_POINT('Origin',(0.,0.,-0.854367061317363));
#255=CARTESIAN_POINT('Origin',(-2.92580752950592E-17,-1.22371493679449E-17,
0.));
#256=CARTESIAN_POINT('',(0.25,0.144337567297406,0.));
#257=CARTESIAN_POINT('',(0.25,-0.144337567297407,0.));
#258=CARTESIAN_POINT('',(0.25,0.0721687836487031,0.));
#259=CARTESIAN_POINT('',(5.52490930053405E-17,-0.288675134594813,0.));
#260=CARTESIAN_POINT('',(0.1875,-0.180421959121758,0.));
#261=CARTESIAN_POINT('',(-0.25,-0.144337567297406,0.));
#262=CARTESIAN_POINT('',(-0.0625,-0.252590742770461,0.));
#263=CARTESIAN_POINT('',(-0.25,0.144337567297406,0.));
#264=CARTESIAN_POINT('',(-0.25,-0.0721687836487032,0.));
#265=CARTESIAN_POINT('',(3.78201123462444E-17,0.288675134594813,0.));
#266=CARTESIAN_POINT('',(-0.1875,0.180421959121758,0.));
#267=CARTESIAN_POINT('',(0.0625,0.252590742770461,0.));
#268=CARTESIAN_POINT('Origin',(0.,0.,-0.930768393903668));
#269=CARTESIAN_POINT('Origin',(0.25,0.144337567297406,0.));
#270=CARTESIAN_POINT('',(0.25,0.144337567297406,-0.375));
#271=CARTESIAN_POINT('',(0.25,0.144337567297406,0.));
#272=CARTESIAN_POINT('',(0.25,-0.144337567297407,-0.375));
#273=CARTESIAN_POINT('',(0.25,0.144337567297406,-0.375));
#274=CARTESIAN_POINT('',(0.25,-0.144337567297407,0.));
#275=CARTESIAN_POINT('Origin',(3.78201123462444E-17,0.288675134594813,0.));
#276=CARTESIAN_POINT('',(4.37095678986282E-17,0.288675134594813,-0.375));
#277=CARTESIAN_POINT('',(3.78201123462444E-17,0.288675134594813,0.));
#278=CARTESIAN_POINT('',(3.78201123462444E-17,0.288675134594813,-0.375));
#279=CARTESIAN_POINT('Origin',(-0.25,0.144337567297406,0.));
#280=CARTESIAN_POINT('',(-0.25,0.144337567297406,-0.375));
#281=CARTESIAN_POINT('',(-0.25,0.144337567297406,0.));
#282=CARTESIAN_POINT('',(-0.25,0.144337567297406,-0.375));
#283=CARTESIAN_POINT('Origin',(-0.25,-0.144337567297406,0.));
#284=CARTESIAN_POINT('',(-0.25,-0.144337567297406,-0.375));
#285=CARTESIAN_POINT('',(-0.25,-0.144337567297406,0.));
#286=CARTESIAN_POINT('',(-0.25,-0.144337567297406,-0.375));
#287=CARTESIAN_POINT('Origin',(5.52490930053405E-17,-0.288675134594813,
0.));
#288=CARTESIAN_POINT('',(4.37095678986282E-17,-0.288675134594813,-0.375));
#289=CARTESIAN_POINT('',(5.52490930053405E-17,-0.288675134594813,0.));
#290=CARTESIAN_POINT('',(5.52490930053405E-17,-0.288675134594813,-0.375));
#291=CARTESIAN_POINT('Origin',(0.25,-0.144337567297407,0.));
#292=CARTESIAN_POINT('',(0.25,-0.144337567297407,-0.375));
#293=CARTESIAN_POINT('Origin',(1.74838271594513E-16,-4.37095678986282E-17,
-0.375));
#294=UNCERTAINTY_MEASURE_WITH_UNIT(LENGTH_MEASURE(0.000393700787401575),
#298,'DISTANCE_ACCURACY_VALUE',
'Maximum model space distance between geometric entities at asserted c
onnectivities');
#295=UNCERTAINTY_MEASURE_WITH_UNIT(LENGTH_MEASURE(1.E-6),#299,
'DISTANCE_ACCURACY_VALUE',
'Maximum model space distance between geometric entities at asserted c
onnectivities');
#296=(
GEOMETRIC_REPRESENTATION_CONTEXT(3)
GLOBAL_UNCERTAINTY_ASSIGNED_CONTEXT((#294))
GLOBAL_UNIT_ASSIGNED_CONTEXT((#298,#304,#301))
REPRESENTATION_CONTEXT('','3D')
);
#297=(
GEOMETRIC_REPRESENTATION_CONTEXT(3)
GLOBAL_UNCERTAINTY_ASSIGNED_CONTEXT((#295))
GLOBAL_UNIT_ASSIGNED_CONTEXT((#299,#304,#301))
REPRESENTATION_CONTEXT('','3D')
);
#298=(
CONVERSION_BASED_UNIT('__CONSTANT UNIT inch',#300)
LENGTH_UNIT()
NAMED_UNIT(#303)
);
#299=(
LENGTH_UNIT()
NAMED_UNIT(*)
SI_UNIT(.MILLI.,.METRE.)
);
#300=LENGTH_MEASURE_WITH_UNIT(LENGTH_MEASURE(25.4),#299);
#301=(
NAMED_UNIT(*)
SI_UNIT($,.STERADIAN.)
SOLID_ANGLE_UNIT()
);
#302=DIMENSIONAL_EXPONENTS(0.,0.,0.,0.,0.,0.,0.);
#303=DIMENSIONAL_EXPONENTS(1.,0.,0.,0.,0.,0.,0.);
#304=(
CONVERSION_BASED_UNIT('degree',#306)
NAMED_UNIT(#302)
PLANE_ANGLE_UNIT()
);
#305=(
NAMED_UNIT(*)
PLANE_ANGLE_UNIT()
SI_UNIT($,.RADIAN.)
);
#306=PLANE_ANGLE_MEASURE_WITH_UNIT(PLANE_ANGLE_MEASURE(0.01745329252),#305);
#307=SHAPE_DEFINITION_REPRESENTATION(#308,#309);
#308=PRODUCT_DEFINITION_SHAPE('',$,#311);
#309=SHAPE_REPRESENTATION('',(#183),#296);
#310=PRODUCT_DEFINITION_CONTEXT('part definition',#315,'design');
#311=PRODUCT_DEFINITION('11939','11939',#312,#310);
#312=PRODUCT_DEFINITION_FORMATION('',$,#317);
#313=PRODUCT_RELATED_PRODUCT_CATEGORY('11939','11939',(#317));
#314=APPLICATION_PROTOCOL_DEFINITION('international standard',
'automotive_design',2009,#315);
#315=APPLICATION_CONTEXT(
'Core Data for Automotive Mechanical Design Process');
#316=PRODUCT_CONTEXT('part definition',#315,'mechanical');
#317=PRODUCT('11939','11939',$,(#316));
#318=PRESENTATION_STYLE_ASSIGNMENT((#319));
#319=SURFACE_STYLE_USAGE(.BOTH.,#320);
#320=SURFACE_SIDE_STYLE($,(#321));
#321=SURFACE_STYLE_FILL_AREA(#322);
#322=FILL_AREA_STYLE($,(#323));
#323=FILL_AREA_STYLE_COLOUR($,#324);
#324=COLOUR_RGB('',0.749019607843137,0.749019607843137,0.749019607843137);
ENDSEC;
END-ISO-10303-21;
