ISO-10303-21;
HEADER;
/* Generated by software containing ST-Developer
 * from STEP Tools, Inc. (www.steptools.com) 
 */

FILE_DESCRIPTION(
/* description */ (''),
/* implementation_level */ '2;1');

FILE_NAME(
/* name */ '\\\\SERVER1\\dwgs\\product\\Screws\\11941-HEX-375.stp',
/* time_stamp */ '2016-10-24T10:55:51-04:00',
/* author */ ('tsmith'),
/* organization */ (''),
/* preprocessor_version */ 'ST-DEVELOPER v15.6',
/* originating_system */ 'Autodesk Inventor 2015',
/* authorisation */ '');

FILE_SCHEMA (('AUTOMOTIVE_DESIGN { 1 0 10303 214 3 1 1 }'));
ENDSEC;

DATA;
#10=MECHANICAL_DESIGN_GEOMETRIC_PRESENTATION_REPRESENTATION('',(#13),#317);
#11=SHAPE_REPRESENTATION_RELATIONSHIP('SRR','None',#329,#12);
#12=ADVANCED_BREP_SHAPE_REPRESENTATION($,(#14),#316);
#13=STYLED_ITEM('',(#338),#14);
#14=MANIFOLD_SOLID_BREP('Solid1',#187);
#15=CYLINDRICAL_SURFACE('',#197,0.406);
#16=LINE('',#281,#28);
#17=LINE('',#283,#29);
#18=LINE('',#284,#30);
#19=LINE('',#287,#31);
#20=LINE('',#288,#32);
#21=LINE('',#291,#33);
#22=LINE('',#292,#34);
#23=LINE('',#304,#35);
#24=LINE('',#305,#36);
#25=LINE('',#308,#37);
#26=LINE('',#309,#38);
#27=LINE('',#311,#39);
#28=VECTOR('',#213,0.355662432702593);
#29=VECTOR('',#214,0.21650635094611);
#30=VECTOR('',#215,0.355662432702593);
#31=VECTOR('',#218,0.355662432702593);
#32=VECTOR('',#219,0.21650635094611);
#33=VECTOR('',#222,0.355662432702594);
#34=VECTOR('',#223,0.21650635094611);
#35=VECTOR('',#238,0.355662432702594);
#36=VECTOR('',#239,0.21650635094611);
#37=VECTOR('',#242,0.355662432702594);
#38=VECTOR('',#243,0.21650635094611);
#39=VECTOR('',#246,0.21650635094611);
#40=PLANE('',#191);
#41=PLANE('',#192);
#42=PLANE('',#193);
#43=PLANE('',#199);
#44=PLANE('',#200);
#45=PLANE('',#201);
#46=PLANE('',#202);
#47=PLANE('',#203);
#48=FACE_BOUND('',#69,.T.);
#49=FACE_BOUND('',#74,.T.);
#50=FACE_BOUND('',#76,.T.);
#51=FACE_BOUND('',#78,.T.);
#52=CIRCLE('',#190,0.25);
#53=CIRCLE('',#195,0.375);
#54=CIRCLE('',#196,0.406);
#55=CIRCLE('',#198,0.406);
#56=FACE_OUTER_BOUND('',#68,.T.);
#57=FACE_OUTER_BOUND('',#70,.T.);
#58=FACE_OUTER_BOUND('',#71,.T.);
#59=FACE_OUTER_BOUND('',#72,.T.);
#60=FACE_OUTER_BOUND('',#73,.T.);
#61=FACE_OUTER_BOUND('',#75,.T.);
#62=FACE_OUTER_BOUND('',#77,.T.);
#63=FACE_OUTER_BOUND('',#79,.T.);
#64=FACE_OUTER_BOUND('',#80,.T.);
#65=FACE_OUTER_BOUND('',#81,.T.);
#66=FACE_OUTER_BOUND('',#82,.T.);
#67=FACE_OUTER_BOUND('',#83,.T.);
#68=EDGE_LOOP('',(#128,#129,#130,#131,#132,#133));
#69=EDGE_LOOP('',(#134));
#70=EDGE_LOOP('',(#135,#136,#137,#138));
#71=EDGE_LOOP('',(#139,#140,#141,#142));
#72=EDGE_LOOP('',(#143,#144,#145,#146));
#73=EDGE_LOOP('',(#147));
#74=EDGE_LOOP('',(#148));
#75=EDGE_LOOP('',(#149));
#76=EDGE_LOOP('',(#150));
#77=EDGE_LOOP('',(#151));
#78=EDGE_LOOP('',(#152));
#79=EDGE_LOOP('',(#153,#154,#155,#156));
#80=EDGE_LOOP('',(#157,#158,#159,#160));
#81=EDGE_LOOP('',(#161,#162,#163,#164));
#82=EDGE_LOOP('',(#165,#166,#167,#168,#169,#170));
#83=EDGE_LOOP('',(#171));
#84=(
BOUNDED_CURVE()
B_SPLINE_CURVE(2,(#255,#256,#257),.UNSPECIFIED.,.F.,.F.)
B_SPLINE_CURVE_WITH_KNOTS((3,3),(0.125131450175952,0.734662614314687),
 .UNSPECIFIED.)
CURVE()
GEOMETRIC_REPRESENTATION_ITEM()
RATIONAL_B_SPLINE_CURVE((1.08290376865545,1.25042956467789,1.08290376865545))
REPRESENTATION_ITEM('')
);
#85=(
BOUNDED_CURVE()
B_SPLINE_CURVE(2,(#259,#260,#261),.UNSPECIFIED.,.F.,.F.)
B_SPLINE_CURVE_WITH_KNOTS((3,3),(0.125131450175952,0.734662614314687),
 .UNSPECIFIED.)
CURVE()
GEOMETRIC_REPRESENTATION_ITEM()
RATIONAL_B_SPLINE_CURVE((1.08290376865545,1.25042956467789,1.08290376865545))
REPRESENTATION_ITEM('')
);
#86=(
BOUNDED_CURVE()
B_SPLINE_CURVE(2,(#263,#264,#265),.UNSPECIFIED.,.F.,.F.)
B_SPLINE_CURVE_WITH_KNOTS((3,3),(0.125131450175952,0.734662614314688),
 .UNSPECIFIED.)
CURVE()
GEOMETRIC_REPRESENTATION_ITEM()
RATIONAL_B_SPLINE_CURVE((1.08290376865545,1.25042956467789,1.08290376865545))
REPRESENTATION_ITEM('')
);
#87=(
BOUNDED_CURVE()
B_SPLINE_CURVE(2,(#267,#268,#269),.UNSPECIFIED.,.F.,.F.)
B_SPLINE_CURVE_WITH_KNOTS((3,3),(0.125131450175952,0.734662614314688),
 .UNSPECIFIED.)
CURVE()
GEOMETRIC_REPRESENTATION_ITEM()
RATIONAL_B_SPLINE_CURVE((1.08290376865545,1.25042956467789,1.08290376865545))
REPRESENTATION_ITEM('')
);
#88=(
BOUNDED_CURVE()
B_SPLINE_CURVE(2,(#271,#272,#273),.UNSPECIFIED.,.F.,.F.)
B_SPLINE_CURVE_WITH_KNOTS((3,3),(0.125131450175952,0.734662614314687),
 .UNSPECIFIED.)
CURVE()
GEOMETRIC_REPRESENTATION_ITEM()
RATIONAL_B_SPLINE_CURVE((1.08290376865545,1.25042956467789,1.08290376865545))
REPRESENTATION_ITEM('')
);
#89=(
BOUNDED_CURVE()
B_SPLINE_CURVE(2,(#274,#275,#276),.UNSPECIFIED.,.F.,.F.)
B_SPLINE_CURVE_WITH_KNOTS((3,3),(0.125131450175952,0.734662614314687),
 .UNSPECIFIED.)
CURVE()
GEOMETRIC_REPRESENTATION_ITEM()
RATIONAL_B_SPLINE_CURVE((1.08290376865545,1.25042956467789,1.08290376865545))
REPRESENTATION_ITEM('')
);
#90=VERTEX_POINT('',#253);
#91=VERTEX_POINT('',#254);
#92=VERTEX_POINT('',#258);
#93=VERTEX_POINT('',#262);
#94=VERTEX_POINT('',#266);
#95=VERTEX_POINT('',#270);
#96=VERTEX_POINT('',#277);
#97=VERTEX_POINT('',#280);
#98=VERTEX_POINT('',#282);
#99=VERTEX_POINT('',#286);
#100=VERTEX_POINT('',#290);
#101=VERTEX_POINT('',#294);
#102=VERTEX_POINT('',#296);
#103=VERTEX_POINT('',#299);
#104=VERTEX_POINT('',#303);
#105=VERTEX_POINT('',#307);
#106=EDGE_CURVE('',#90,#91,#84,.T.);
#107=EDGE_CURVE('',#92,#90,#85,.T.);
#108=EDGE_CURVE('',#93,#92,#86,.T.);
#109=EDGE_CURVE('',#94,#93,#87,.T.);
#110=EDGE_CURVE('',#95,#94,#88,.T.);
#111=EDGE_CURVE('',#91,#95,#89,.T.);
#112=EDGE_CURVE('',#96,#96,#52,.T.);
#113=EDGE_CURVE('',#93,#97,#16,.T.);
#114=EDGE_CURVE('',#98,#97,#17,.T.);
#115=EDGE_CURVE('',#94,#98,#18,.T.);
#116=EDGE_CURVE('',#92,#99,#19,.T.);
#117=EDGE_CURVE('',#97,#99,#20,.T.);
#118=EDGE_CURVE('',#90,#100,#21,.T.);
#119=EDGE_CURVE('',#99,#100,#22,.T.);
#120=EDGE_CURVE('',#101,#101,#53,.T.);
#121=EDGE_CURVE('',#102,#102,#54,.T.);
#122=EDGE_CURVE('',#103,#103,#55,.T.);
#123=EDGE_CURVE('',#91,#104,#23,.T.);
#124=EDGE_CURVE('',#100,#104,#24,.T.);
#125=EDGE_CURVE('',#95,#105,#25,.T.);
#126=EDGE_CURVE('',#104,#105,#26,.T.);
#127=EDGE_CURVE('',#105,#98,#27,.T.);
#128=ORIENTED_EDGE('',*,*,#106,.F.);
#129=ORIENTED_EDGE('',*,*,#107,.F.);
#130=ORIENTED_EDGE('',*,*,#108,.F.);
#131=ORIENTED_EDGE('',*,*,#109,.F.);
#132=ORIENTED_EDGE('',*,*,#110,.F.);
#133=ORIENTED_EDGE('',*,*,#111,.F.);
#134=ORIENTED_EDGE('',*,*,#112,.F.);
#135=ORIENTED_EDGE('',*,*,#109,.T.);
#136=ORIENTED_EDGE('',*,*,#113,.T.);
#137=ORIENTED_EDGE('',*,*,#114,.F.);
#138=ORIENTED_EDGE('',*,*,#115,.F.);
#139=ORIENTED_EDGE('',*,*,#108,.T.);
#140=ORIENTED_EDGE('',*,*,#116,.T.);
#141=ORIENTED_EDGE('',*,*,#117,.F.);
#142=ORIENTED_EDGE('',*,*,#113,.F.);
#143=ORIENTED_EDGE('',*,*,#107,.T.);
#144=ORIENTED_EDGE('',*,*,#118,.T.);
#145=ORIENTED_EDGE('',*,*,#119,.F.);
#146=ORIENTED_EDGE('',*,*,#116,.F.);
#147=ORIENTED_EDGE('',*,*,#120,.T.);
#148=ORIENTED_EDGE('',*,*,#121,.T.);
#149=ORIENTED_EDGE('',*,*,#122,.T.);
#150=ORIENTED_EDGE('',*,*,#121,.F.);
#151=ORIENTED_EDGE('',*,*,#120,.F.);
#152=ORIENTED_EDGE('',*,*,#112,.T.);
#153=ORIENTED_EDGE('',*,*,#106,.T.);
#154=ORIENTED_EDGE('',*,*,#123,.T.);
#155=ORIENTED_EDGE('',*,*,#124,.F.);
#156=ORIENTED_EDGE('',*,*,#118,.F.);
#157=ORIENTED_EDGE('',*,*,#111,.T.);
#158=ORIENTED_EDGE('',*,*,#125,.T.);
#159=ORIENTED_EDGE('',*,*,#126,.F.);
#160=ORIENTED_EDGE('',*,*,#123,.F.);
#161=ORIENTED_EDGE('',*,*,#110,.T.);
#162=ORIENTED_EDGE('',*,*,#115,.T.);
#163=ORIENTED_EDGE('',*,*,#127,.F.);
#164=ORIENTED_EDGE('',*,*,#125,.F.);
#165=ORIENTED_EDGE('',*,*,#124,.T.);
#166=ORIENTED_EDGE('',*,*,#126,.T.);
#167=ORIENTED_EDGE('',*,*,#127,.T.);
#168=ORIENTED_EDGE('',*,*,#114,.T.);
#169=ORIENTED_EDGE('',*,*,#117,.T.);
#170=ORIENTED_EDGE('',*,*,#119,.T.);
#171=ORIENTED_EDGE('',*,*,#122,.F.);
#172=CONICAL_SURFACE('',#189,0.125,60.);
#173=CONICAL_SURFACE('',#194,0.3905,45.);
#174=CONICAL_SURFACE('',#204,0.219,60.);
#175=ADVANCED_FACE('',(#56,#48),#172,.F.);
#176=ADVANCED_FACE('',(#57),#40,.F.);
#177=ADVANCED_FACE('',(#58),#41,.F.);
#178=ADVANCED_FACE('',(#59),#42,.F.);
#179=ADVANCED_FACE('',(#60,#49),#173,.T.);
#180=ADVANCED_FACE('',(#61,#50),#15,.T.);
#181=ADVANCED_FACE('',(#62,#51),#43,.F.);
#182=ADVANCED_FACE('',(#63),#44,.F.);
#183=ADVANCED_FACE('',(#64),#45,.F.);
#184=ADVANCED_FACE('',(#65),#46,.F.);
#185=ADVANCED_FACE('',(#66),#47,.T.);
#186=ADVANCED_FACE('',(#67),#174,.T.);
#187=CLOSED_SHELL('',(#175,#176,#177,#178,#179,#180,#181,#182,#183,#184,
#185,#186));
#188=AXIS2_PLACEMENT_3D('placement',#251,#205,#206);
#189=AXIS2_PLACEMENT_3D('',#252,#207,#208);
#190=AXIS2_PLACEMENT_3D('',#278,#209,#210);
#191=AXIS2_PLACEMENT_3D('',#279,#211,#212);
#192=AXIS2_PLACEMENT_3D('',#285,#216,#217);
#193=AXIS2_PLACEMENT_3D('',#289,#220,#221);
#194=AXIS2_PLACEMENT_3D('',#293,#224,#225);
#195=AXIS2_PLACEMENT_3D('',#295,#226,#227);
#196=AXIS2_PLACEMENT_3D('',#297,#228,#229);
#197=AXIS2_PLACEMENT_3D('',#298,#230,#231);
#198=AXIS2_PLACEMENT_3D('',#300,#232,#233);
#199=AXIS2_PLACEMENT_3D('',#301,#234,#235);
#200=AXIS2_PLACEMENT_3D('',#302,#236,#237);
#201=AXIS2_PLACEMENT_3D('',#306,#240,#241);
#202=AXIS2_PLACEMENT_3D('',#310,#244,#245);
#203=AXIS2_PLACEMENT_3D('',#312,#247,#248);
#204=AXIS2_PLACEMENT_3D('',#313,#249,#250);
#205=DIRECTION('axis',(0.,0.,1.));
#206=DIRECTION('refdir',(1.,0.,0.));
#207=DIRECTION('center_axis',(2.49828871752296E-16,0.,1.));
#208=DIRECTION('ref_axis',(-1.,0.,0.));
#209=DIRECTION('center_axis',(0.,0.,-1.));
#210=DIRECTION('ref_axis',(-1.,0.,0.));
#211=DIRECTION('center_axis',(1.,-5.04714615848704E-16,0.));
#212=DIRECTION('ref_axis',(0.,0.,-1.));
#213=DIRECTION('',(0.,0.,-1.));
#214=DIRECTION('',(5.04714615848704E-16,1.,0.));
#215=DIRECTION('',(0.,0.,-1.));
#216=DIRECTION('center_axis',(0.5,0.866025403784438,0.));
#217=DIRECTION('ref_axis',(0.,0.,-1.));
#218=DIRECTION('',(0.,0.,-1.));
#219=DIRECTION('',(-0.866025403784438,0.5,0.));
#220=DIRECTION('center_axis',(-0.5,0.866025403784439,0.));
#221=DIRECTION('ref_axis',(0.,0.,1.));
#222=DIRECTION('',(0.,0.,-1.));
#223=DIRECTION('',(-0.866025403784439,-0.5,0.));
#224=DIRECTION('center_axis',(0.,0.,-1.));
#225=DIRECTION('ref_axis',(-1.,0.,0.));
#226=DIRECTION('center_axis',(0.,0.,-1.));
#227=DIRECTION('ref_axis',(-1.,0.,0.));
#228=DIRECTION('center_axis',(0.,0.,1.));
#229=DIRECTION('ref_axis',(-1.,0.,0.));
#230=DIRECTION('center_axis',(0.,0.,-1.));
#231=DIRECTION('ref_axis',(-1.,0.,0.));
#232=DIRECTION('center_axis',(0.,0.,1.));
#233=DIRECTION('ref_axis',(-1.,0.,0.));
#234=DIRECTION('center_axis',(0.,0.,-1.));
#235=DIRECTION('ref_axis',(-1.,0.,0.));
#236=DIRECTION('center_axis',(-1.,2.01885846339482E-16,0.));
#237=DIRECTION('ref_axis',(0.,0.,1.));
#238=DIRECTION('',(0.,0.,-1.));
#239=DIRECTION('',(-2.01885846339482E-16,-1.,0.));
#240=DIRECTION('center_axis',(-0.500000000000001,-0.866025403784438,0.));
#241=DIRECTION('ref_axis',(0.,0.,1.));
#242=DIRECTION('',(0.,0.,-1.));
#243=DIRECTION('',(0.866025403784438,-0.500000000000001,0.));
#244=DIRECTION('center_axis',(0.5,-0.866025403784439,0.));
#245=DIRECTION('ref_axis',(0.,0.,-1.));
#246=DIRECTION('',(0.866025403784439,0.499999999999999,0.));
#247=DIRECTION('center_axis',(0.,0.,1.));
#248=DIRECTION('ref_axis',(1.,0.,0.));
#249=DIRECTION('center_axis',(0.,0.,1.));
#250=DIRECTION('ref_axis',(-1.,0.,0.));
#251=CARTESIAN_POINT('',(0.,0.,0.));
#252=CARTESIAN_POINT('Origin',(-1.80298457946911E-17,0.,-0.0721687836487032));
#253=CARTESIAN_POINT('',(-0.1875,0.108253175473055,-0.0193375672974064));
#254=CARTESIAN_POINT('',(-0.1875,-0.108253175473055,-0.0193375672974064));
#255=CARTESIAN_POINT('Ctrl Pts',(-0.1875,0.108253175473055,-0.0193375672974064));
#256=CARTESIAN_POINT('Ctrl Pts',(-0.1875,7.53908090811527E-14,-0.0505875672972741));
#257=CARTESIAN_POINT('Ctrl Pts',(-0.1875,-0.108253175473055,-0.0193375672974064));
#258=CARTESIAN_POINT('',(1.67230006985732E-17,0.21650635094611,-0.0193375672974065));
#259=CARTESIAN_POINT('Ctrl Pts',(1.67230006985732E-17,0.21650635094611,
-0.0193375672974065));
#260=CARTESIAN_POINT('Ctrl Pts',(-0.0937499999999348,0.16237976320962,-0.0505875672972741));
#261=CARTESIAN_POINT('Ctrl Pts',(-0.1875,0.108253175473055,-0.0193375672974064));
#262=CARTESIAN_POINT('',(0.1875,0.108253175473055,-0.0193375672974065));
#263=CARTESIAN_POINT('Ctrl Pts',(0.1875,0.108253175473055,-0.0193375672974065));
#264=CARTESIAN_POINT('Ctrl Pts',(0.0937500000000653,0.162379763209544,-0.0505875672972742));
#265=CARTESIAN_POINT('Ctrl Pts',(1.67230006985732E-17,0.21650635094611,
-0.0193375672974065));
#266=CARTESIAN_POINT('',(0.1875,-0.108253175473055,-0.0193375672974065));
#267=CARTESIAN_POINT('Ctrl Pts',(0.1875,-0.108253175473055,-0.0193375672974065));
#268=CARTESIAN_POINT('Ctrl Pts',(0.1875,-7.54700326729689E-14,-0.0505875672972741));
#269=CARTESIAN_POINT('Ctrl Pts',(0.1875,0.108253175473055,-0.0193375672974065));
#270=CARTESIAN_POINT('',(-1.20533224457815E-16,-0.21650635094611,-0.0193375672974064));
#271=CARTESIAN_POINT('Ctrl Pts',(-1.20533224457815E-16,-0.21650635094611,
-0.0193375672974064));
#272=CARTESIAN_POINT('Ctrl Pts',(0.0937499999999346,-0.16237976320962,-0.0505875672972741));
#273=CARTESIAN_POINT('Ctrl Pts',(0.1875,-0.108253175473055,-0.0193375672974065));
#274=CARTESIAN_POINT('Ctrl Pts',(-0.1875,-0.108253175473055,-0.0193375672974064));
#275=CARTESIAN_POINT('Ctrl Pts',(-0.0937500000000654,-0.162379763209545,
-0.0505875672972741));
#276=CARTESIAN_POINT('Ctrl Pts',(-1.20533224457815E-16,-0.21650635094611,
-0.0193375672974064));
#277=CARTESIAN_POINT('',(-0.25,0.,0.));
#278=CARTESIAN_POINT('Origin',(4.85273686774737E-33,0.,0.));
#279=CARTESIAN_POINT('Origin',(0.1875,-0.108253175473055,0.));
#280=CARTESIAN_POINT('',(0.1875,0.108253175473055,-0.375));
#281=CARTESIAN_POINT('',(0.1875,0.108253175473055,0.));
#282=CARTESIAN_POINT('',(0.1875,-0.108253175473055,-0.375));
#283=CARTESIAN_POINT('',(0.1875,0.108253175473055,-0.375));
#284=CARTESIAN_POINT('',(0.1875,-0.108253175473055,0.));
#285=CARTESIAN_POINT('Origin',(0.1875,0.108253175473055,0.));
#286=CARTESIAN_POINT('',(1.67230006985732E-17,0.21650635094611,-0.375));
#287=CARTESIAN_POINT('',(1.67230006985732E-17,0.21650635094611,0.));
#288=CARTESIAN_POINT('',(1.67230006985732E-17,0.21650635094611,-0.375));
#289=CARTESIAN_POINT('Origin',(1.67230006985732E-17,0.21650635094611,0.));
#290=CARTESIAN_POINT('',(-0.1875,0.108253175473055,-0.375));
#291=CARTESIAN_POINT('',(-0.1875,0.108253175473055,0.));
#292=CARTESIAN_POINT('',(-0.1875,0.108253175473055,-0.375));
#293=CARTESIAN_POINT('Origin',(0.,0.,-0.0155));
#294=CARTESIAN_POINT('',(0.375,-4.59242549680257E-17,0.));
#295=CARTESIAN_POINT('Origin',(0.,0.,0.));
#296=CARTESIAN_POINT('',(0.406,4.97206600453825E-17,-0.031));
#297=CARTESIAN_POINT('Origin',(0.,0.,-0.031));
#298=CARTESIAN_POINT('Origin',(0.,0.,0.));
#299=CARTESIAN_POINT('',(0.406,4.97206600453825E-17,-0.765595790709012));
#300=CARTESIAN_POINT('Origin',(0.,0.,-0.765595790709012));
#301=CARTESIAN_POINT('Origin',(0.,0.,0.));
#302=CARTESIAN_POINT('Origin',(-0.1875,0.108253175473055,0.));
#303=CARTESIAN_POINT('',(-0.1875,-0.108253175473055,-0.375));
#304=CARTESIAN_POINT('',(-0.1875,-0.108253175473055,0.));
#305=CARTESIAN_POINT('',(-0.1875,-0.108253175473055,-0.375));
#306=CARTESIAN_POINT('Origin',(-0.1875,-0.108253175473055,0.));
#307=CARTESIAN_POINT('',(-1.20533224457815E-16,-0.21650635094611,-0.375));
#308=CARTESIAN_POINT('',(-1.20533224457815E-16,-0.21650635094611,0.));
#309=CARTESIAN_POINT('',(-1.20533224457815E-16,-0.21650635094611,-0.375));
#310=CARTESIAN_POINT('Origin',(-1.20533224457815E-16,-0.21650635094611,
0.));
#311=CARTESIAN_POINT('',(0.1875,-0.108253175473055,-0.375));
#312=CARTESIAN_POINT('Origin',(-1.63910879619856E-17,-3.3610008649324E-17,
-0.375));
#313=CARTESIAN_POINT('Origin',(0.,0.,-0.873560291047472));
#314=UNCERTAINTY_MEASURE_WITH_UNIT(LENGTH_MEASURE(0.000393700787401575),
#318,'DISTANCE_ACCURACY_VALUE',
'Maximum model space distance between geometric entities at asserted c
onnectivities');
#315=UNCERTAINTY_MEASURE_WITH_UNIT(LENGTH_MEASURE(1.E-6),#319,
'DISTANCE_ACCURACY_VALUE',
'Maximum model space distance between geometric entities at asserted c
onnectivities');
#316=(
GEOMETRIC_REPRESENTATION_CONTEXT(3)
GLOBAL_UNCERTAINTY_ASSIGNED_CONTEXT((#314))
GLOBAL_UNIT_ASSIGNED_CONTEXT((#318,#324,#321))
REPRESENTATION_CONTEXT('','3D')
);
#317=(
GEOMETRIC_REPRESENTATION_CONTEXT(3)
GLOBAL_UNCERTAINTY_ASSIGNED_CONTEXT((#315))
GLOBAL_UNIT_ASSIGNED_CONTEXT((#319,#324,#321))
REPRESENTATION_CONTEXT('','3D')
);
#318=(
CONVERSION_BASED_UNIT('__CONSTANT UNIT inch',#320)
LENGTH_UNIT()
NAMED_UNIT(#323)
);
#319=(
LENGTH_UNIT()
NAMED_UNIT(*)
SI_UNIT(.MILLI.,.METRE.)
);
#320=LENGTH_MEASURE_WITH_UNIT(LENGTH_MEASURE(25.4),#319);
#321=(
NAMED_UNIT(*)
SI_UNIT($,.STERADIAN.)
SOLID_ANGLE_UNIT()
);
#322=DIMENSIONAL_EXPONENTS(0.,0.,0.,0.,0.,0.,0.);
#323=DIMENSIONAL_EXPONENTS(1.,0.,0.,0.,0.,0.,0.);
#324=(
CONVERSION_BASED_UNIT('degree',#326)
NAMED_UNIT(#322)
PLANE_ANGLE_UNIT()
);
#325=(
NAMED_UNIT(*)
PLANE_ANGLE_UNIT()
SI_UNIT($,.RADIAN.)
);
#326=PLANE_ANGLE_MEASURE_WITH_UNIT(PLANE_ANGLE_MEASURE(0.01745329252),#325);
#327=SHAPE_DEFINITION_REPRESENTATION(#328,#329);
#328=PRODUCT_DEFINITION_SHAPE('',$,#331);
#329=SHAPE_REPRESENTATION('',(#188),#316);
#330=PRODUCT_DEFINITION_CONTEXT('part definition',#335,'design');
#331=PRODUCT_DEFINITION('11941-HEX-375','11941-HEX-375',#332,#330);
#332=PRODUCT_DEFINITION_FORMATION('',$,#337);
#333=PRODUCT_RELATED_PRODUCT_CATEGORY('11941-HEX-375','11941-HEX-375',(#337));
#334=APPLICATION_PROTOCOL_DEFINITION('international standard',
'automotive_design',2009,#335);
#335=APPLICATION_CONTEXT(
'Core Data for Automotive Mechanical Design Process');
#336=PRODUCT_CONTEXT('part definition',#335,'mechanical');
#337=PRODUCT('11941-HEX-375','11941-HEX-375',$,(#336));
#338=PRESENTATION_STYLE_ASSIGNMENT((#339));
#339=SURFACE_STYLE_USAGE(.BOTH.,#340);
#340=SURFACE_SIDE_STYLE($,(#341));
#341=SURFACE_STYLE_FILL_AREA(#342);
#342=FILL_AREA_STYLE($,(#343));
#343=FILL_AREA_STYLE_COLOUR($,#344);
#344=COLOUR_RGB('',0.949019607843137,0.925490196078431,0.933333333333333);
ENDSEC;
END-ISO-10303-21;
