ISO-10303-21;
HEADER;
/* Generated by software containing ST-Developer
 * from STEP Tools, Inc. (www.steptools.com) 
 */

FILE_DESCRIPTION(
/* description */ (''),
/* implementation_level */ '2;1');

FILE_NAME(
/* name */ '\\\\SERVER1\\dwgs\\product\\Screws\\13475.stp',
/* time_stamp */ '2016-10-24T10:18:58-04:00',
/* author */ ('tsmith'),
/* organization */ (''),
/* preprocessor_version */ 'ST-DEVELOPER v15.6',
/* originating_system */ 'Autodesk Inventor 2015',
/* authorisation */ '');

FILE_SCHEMA (('AUTOMOTIVE_DESIGN { 1 0 10303 214 3 1 1 }'));
ENDSEC;

DATA;
#10=MECHANICAL_DESIGN_GEOMETRIC_PRESENTATION_REPRESENTATION('',(#13),#317);
#11=SHAPE_REPRESENTATION_RELATIONSHIP('SRR','None',#329,#12);
#12=ADVANCED_BREP_SHAPE_REPRESENTATION($,(#14),#316);
#13=STYLED_ITEM('',(#338),#14);
#14=MANIFOLD_SOLID_BREP('Solid1',#187);
#15=SPHERICAL_SURFACE('',#204,0.281);
#16=LINE('',#290,#28);
#17=LINE('',#292,#29);
#18=LINE('',#293,#30);
#19=LINE('',#296,#31);
#20=LINE('',#297,#32);
#21=LINE('',#300,#33);
#22=LINE('',#301,#34);
#23=LINE('',#304,#35);
#24=LINE('',#305,#36);
#25=LINE('',#308,#37);
#26=LINE('',#309,#38);
#27=LINE('',#311,#39);
#28=VECTOR('',#225,0.23954185060765);
#29=VECTOR('',#226,0.10854185060765);
#30=VECTOR('',#227,0.23954185060765);
#31=VECTOR('',#230,0.23954185060765);
#32=VECTOR('',#231,0.10854185060765);
#33=VECTOR('',#234,0.23954185060765);
#34=VECTOR('',#235,0.10854185060765);
#35=VECTOR('',#238,0.23954185060765);
#36=VECTOR('',#239,0.10854185060765);
#37=VECTOR('',#242,0.23954185060765);
#38=VECTOR('',#243,0.10854185060765);
#39=VECTOR('',#246,0.10854185060765);
#40=(
BOUNDED_CURVE()
B_SPLINE_CURVE(2,(#266,#267,#268),.UNSPECIFIED.,.F.,.F.)
B_SPLINE_CURVE_WITH_KNOTS((3,3),(0.0426887722622425,0.349163342699511),
 .UNSPECIFIED.)
CURVE()
GEOMETRIC_REPRESENTATION_ITEM()
RATIONAL_B_SPLINE_CURVE((1.05163451089725,1.21432293591126,1.05163451089725))
REPRESENTATION_ITEM('')
);
#41=(
BOUNDED_CURVE()
B_SPLINE_CURVE(2,(#270,#271,#272),.UNSPECIFIED.,.F.,.F.)
B_SPLINE_CURVE_WITH_KNOTS((3,3),(0.0426887722622425,0.349163342699511),
 .UNSPECIFIED.)
CURVE()
GEOMETRIC_REPRESENTATION_ITEM()
RATIONAL_B_SPLINE_CURVE((1.05163451089725,1.21432293591126,1.05163451089725))
REPRESENTATION_ITEM('')
);
#42=(
BOUNDED_CURVE()
B_SPLINE_CURVE(2,(#274,#275,#276),.UNSPECIFIED.,.F.,.F.)
B_SPLINE_CURVE_WITH_KNOTS((3,3),(0.0426887722622427,0.349163342699511),
 .UNSPECIFIED.)
CURVE()
GEOMETRIC_REPRESENTATION_ITEM()
RATIONAL_B_SPLINE_CURVE((1.05163451089725,1.21432293591126,1.05163451089725))
REPRESENTATION_ITEM('')
);
#43=(
BOUNDED_CURVE()
B_SPLINE_CURVE(2,(#278,#279,#280),.UNSPECIFIED.,.F.,.F.)
B_SPLINE_CURVE_WITH_KNOTS((3,3),(0.0426887722622426,0.349163342699511),
 .UNSPECIFIED.)
CURVE()
GEOMETRIC_REPRESENTATION_ITEM()
RATIONAL_B_SPLINE_CURVE((1.05163451089725,1.21432293591126,1.05163451089725))
REPRESENTATION_ITEM('')
);
#44=(
BOUNDED_CURVE()
B_SPLINE_CURVE(2,(#282,#283,#284),.UNSPECIFIED.,.F.,.F.)
B_SPLINE_CURVE_WITH_KNOTS((3,3),(0.0426887722622424,0.349163342699511),
 .UNSPECIFIED.)
CURVE()
GEOMETRIC_REPRESENTATION_ITEM()
RATIONAL_B_SPLINE_CURVE((1.05163451089725,1.21432293591126,1.05163451089725))
REPRESENTATION_ITEM('')
);
#45=(
BOUNDED_CURVE()
B_SPLINE_CURVE(2,(#285,#286,#287),.UNSPECIFIED.,.F.,.F.)
B_SPLINE_CURVE_WITH_KNOTS((3,3),(0.0426887722622425,0.349163342699511),
 .UNSPECIFIED.)
CURVE()
GEOMETRIC_REPRESENTATION_ITEM()
RATIONAL_B_SPLINE_CURVE((1.05163451089725,1.21432293591126,1.05163451089725))
REPRESENTATION_ITEM('')
);
#46=PLANE('',#194);
#47=PLANE('',#197);
#48=PLANE('',#198);
#49=PLANE('',#199);
#50=PLANE('',#200);
#51=PLANE('',#201);
#52=PLANE('',#202);
#53=PLANE('',#203);
#54=CYLINDRICAL_SURFACE('',#192,0.1845);
#55=FACE_BOUND('',#72,.T.);
#56=FACE_BOUND('',#74,.T.);
#57=FACE_BOUND('',#76,.T.);
#58=FACE_BOUND('',#78,.T.);
#59=FACE_OUTER_BOUND('',#71,.T.);
#60=FACE_OUTER_BOUND('',#73,.T.);
#61=FACE_OUTER_BOUND('',#75,.T.);
#62=FACE_OUTER_BOUND('',#77,.T.);
#63=FACE_OUTER_BOUND('',#79,.T.);
#64=FACE_OUTER_BOUND('',#80,.T.);
#65=FACE_OUTER_BOUND('',#81,.T.);
#66=FACE_OUTER_BOUND('',#82,.T.);
#67=FACE_OUTER_BOUND('',#83,.T.);
#68=FACE_OUTER_BOUND('',#84,.T.);
#69=FACE_OUTER_BOUND('',#85,.T.);
#70=FACE_OUTER_BOUND('',#86,.T.);
#71=EDGE_LOOP('',(#129));
#72=EDGE_LOOP('',(#130));
#73=EDGE_LOOP('',(#131));
#74=EDGE_LOOP('',(#132));
#75=EDGE_LOOP('',(#133));
#76=EDGE_LOOP('',(#134));
#77=EDGE_LOOP('',(#135,#136,#137,#138,#139,#140));
#78=EDGE_LOOP('',(#141));
#79=EDGE_LOOP('',(#142,#143,#144,#145));
#80=EDGE_LOOP('',(#146,#147,#148,#149));
#81=EDGE_LOOP('',(#150,#151,#152,#153));
#82=EDGE_LOOP('',(#154,#155,#156,#157));
#83=EDGE_LOOP('',(#158,#159,#160,#161));
#84=EDGE_LOOP('',(#162,#163,#164,#165));
#85=EDGE_LOOP('',(#166,#167,#168,#169,#170,#171));
#86=EDGE_LOOP('',(#172));
#87=CIRCLE('',#190,0.1645);
#88=CIRCLE('',#191,0.1845);
#89=CIRCLE('',#193,0.1845);
#90=CIRCLE('',#195,0.119);
#91=VERTEX_POINT('',#253);
#92=VERTEX_POINT('',#255);
#93=VERTEX_POINT('',#258);
#94=VERTEX_POINT('',#261);
#95=VERTEX_POINT('',#264);
#96=VERTEX_POINT('',#265);
#97=VERTEX_POINT('',#269);
#98=VERTEX_POINT('',#273);
#99=VERTEX_POINT('',#277);
#100=VERTEX_POINT('',#281);
#101=VERTEX_POINT('',#289);
#102=VERTEX_POINT('',#291);
#103=VERTEX_POINT('',#295);
#104=VERTEX_POINT('',#299);
#105=VERTEX_POINT('',#303);
#106=VERTEX_POINT('',#307);
#107=EDGE_CURVE('',#91,#91,#87,.T.);
#108=EDGE_CURVE('',#92,#92,#88,.T.);
#109=EDGE_CURVE('',#93,#93,#89,.T.);
#110=EDGE_CURVE('',#94,#94,#90,.T.);
#111=EDGE_CURVE('',#95,#96,#40,.T.);
#112=EDGE_CURVE('',#97,#95,#41,.T.);
#113=EDGE_CURVE('',#98,#97,#42,.T.);
#114=EDGE_CURVE('',#99,#98,#43,.T.);
#115=EDGE_CURVE('',#100,#99,#44,.T.);
#116=EDGE_CURVE('',#96,#100,#45,.T.);
#117=EDGE_CURVE('',#98,#101,#16,.T.);
#118=EDGE_CURVE('',#102,#101,#17,.T.);
#119=EDGE_CURVE('',#99,#102,#18,.T.);
#120=EDGE_CURVE('',#97,#103,#19,.T.);
#121=EDGE_CURVE('',#101,#103,#20,.T.);
#122=EDGE_CURVE('',#95,#104,#21,.T.);
#123=EDGE_CURVE('',#103,#104,#22,.T.);
#124=EDGE_CURVE('',#96,#105,#23,.T.);
#125=EDGE_CURVE('',#104,#105,#24,.T.);
#126=EDGE_CURVE('',#100,#106,#25,.T.);
#127=EDGE_CURVE('',#105,#106,#26,.T.);
#128=EDGE_CURVE('',#106,#102,#27,.T.);
#129=ORIENTED_EDGE('',*,*,#107,.T.);
#130=ORIENTED_EDGE('',*,*,#108,.T.);
#131=ORIENTED_EDGE('',*,*,#109,.T.);
#132=ORIENTED_EDGE('',*,*,#108,.F.);
#133=ORIENTED_EDGE('',*,*,#107,.F.);
#134=ORIENTED_EDGE('',*,*,#110,.T.);
#135=ORIENTED_EDGE('',*,*,#111,.F.);
#136=ORIENTED_EDGE('',*,*,#112,.F.);
#137=ORIENTED_EDGE('',*,*,#113,.F.);
#138=ORIENTED_EDGE('',*,*,#114,.F.);
#139=ORIENTED_EDGE('',*,*,#115,.F.);
#140=ORIENTED_EDGE('',*,*,#116,.F.);
#141=ORIENTED_EDGE('',*,*,#110,.F.);
#142=ORIENTED_EDGE('',*,*,#114,.T.);
#143=ORIENTED_EDGE('',*,*,#117,.T.);
#144=ORIENTED_EDGE('',*,*,#118,.F.);
#145=ORIENTED_EDGE('',*,*,#119,.F.);
#146=ORIENTED_EDGE('',*,*,#113,.T.);
#147=ORIENTED_EDGE('',*,*,#120,.T.);
#148=ORIENTED_EDGE('',*,*,#121,.F.);
#149=ORIENTED_EDGE('',*,*,#117,.F.);
#150=ORIENTED_EDGE('',*,*,#112,.T.);
#151=ORIENTED_EDGE('',*,*,#122,.T.);
#152=ORIENTED_EDGE('',*,*,#123,.F.);
#153=ORIENTED_EDGE('',*,*,#120,.F.);
#154=ORIENTED_EDGE('',*,*,#111,.T.);
#155=ORIENTED_EDGE('',*,*,#124,.T.);
#156=ORIENTED_EDGE('',*,*,#125,.F.);
#157=ORIENTED_EDGE('',*,*,#122,.F.);
#158=ORIENTED_EDGE('',*,*,#116,.T.);
#159=ORIENTED_EDGE('',*,*,#126,.T.);
#160=ORIENTED_EDGE('',*,*,#127,.F.);
#161=ORIENTED_EDGE('',*,*,#124,.F.);
#162=ORIENTED_EDGE('',*,*,#115,.T.);
#163=ORIENTED_EDGE('',*,*,#119,.T.);
#164=ORIENTED_EDGE('',*,*,#128,.F.);
#165=ORIENTED_EDGE('',*,*,#126,.F.);
#166=ORIENTED_EDGE('',*,*,#125,.T.);
#167=ORIENTED_EDGE('',*,*,#127,.T.);
#168=ORIENTED_EDGE('',*,*,#128,.T.);
#169=ORIENTED_EDGE('',*,*,#118,.T.);
#170=ORIENTED_EDGE('',*,*,#121,.T.);
#171=ORIENTED_EDGE('',*,*,#123,.T.);
#172=ORIENTED_EDGE('',*,*,#109,.F.);
#173=CONICAL_SURFACE('',#189,0.1745,60.0000000000001);
#174=CONICAL_SURFACE('',#196,0.0595,45.);
#175=ADVANCED_FACE('',(#59,#55),#173,.T.);
#176=ADVANCED_FACE('',(#60,#56),#54,.T.);
#177=ADVANCED_FACE('',(#61,#57),#46,.F.);
#178=ADVANCED_FACE('',(#62,#58),#174,.F.);
#179=ADVANCED_FACE('',(#63),#47,.F.);
#180=ADVANCED_FACE('',(#64),#48,.F.);
#181=ADVANCED_FACE('',(#65),#49,.F.);
#182=ADVANCED_FACE('',(#66),#50,.F.);
#183=ADVANCED_FACE('',(#67),#51,.F.);
#184=ADVANCED_FACE('',(#68),#52,.F.);
#185=ADVANCED_FACE('',(#69),#53,.T.);
#186=ADVANCED_FACE('',(#70),#15,.T.);
#187=CLOSED_SHELL('',(#175,#176,#177,#178,#179,#180,#181,#182,#183,#184,
#185,#186));
#188=AXIS2_PLACEMENT_3D('placement',#251,#205,#206);
#189=AXIS2_PLACEMENT_3D('',#252,#207,#208);
#190=AXIS2_PLACEMENT_3D('',#254,#209,#210);
#191=AXIS2_PLACEMENT_3D('',#256,#211,#212);
#192=AXIS2_PLACEMENT_3D('',#257,#213,#214);
#193=AXIS2_PLACEMENT_3D('',#259,#215,#216);
#194=AXIS2_PLACEMENT_3D('',#260,#217,#218);
#195=AXIS2_PLACEMENT_3D('',#262,#219,#220);
#196=AXIS2_PLACEMENT_3D('',#263,#221,#222);
#197=AXIS2_PLACEMENT_3D('',#288,#223,#224);
#198=AXIS2_PLACEMENT_3D('',#294,#228,#229);
#199=AXIS2_PLACEMENT_3D('',#298,#232,#233);
#200=AXIS2_PLACEMENT_3D('',#302,#236,#237);
#201=AXIS2_PLACEMENT_3D('',#306,#240,#241);
#202=AXIS2_PLACEMENT_3D('',#310,#244,#245);
#203=AXIS2_PLACEMENT_3D('',#312,#247,#248);
#204=AXIS2_PLACEMENT_3D('',#313,#249,#250);
#205=DIRECTION('axis',(0.,0.,1.));
#206=DIRECTION('refdir',(1.,0.,0.));
#207=DIRECTION('center_axis',(0.,0.,-1.));
#208=DIRECTION('ref_axis',(-1.,0.,0.));
#209=DIRECTION('center_axis',(0.,0.,-1.));
#210=DIRECTION('ref_axis',(-1.,0.,0.));
#211=DIRECTION('center_axis',(0.,0.,1.));
#212=DIRECTION('ref_axis',(-1.,0.,0.));
#213=DIRECTION('center_axis',(0.,0.,1.));
#214=DIRECTION('ref_axis',(-1.,0.,0.));
#215=DIRECTION('center_axis',(0.,0.,1.));
#216=DIRECTION('ref_axis',(-1.,0.,0.));
#217=DIRECTION('center_axis',(0.,0.,-1.));
#218=DIRECTION('ref_axis',(-1.,0.,0.));
#219=DIRECTION('center_axis',(0.,0.,-1.));
#220=DIRECTION('ref_axis',(0.,1.,0.));
#221=DIRECTION('center_axis',(0.,0.,1.));
#222=DIRECTION('ref_axis',(0.,1.,0.));
#223=DIRECTION('center_axis',(3.02023373845634E-16,-1.,0.));
#224=DIRECTION('ref_axis',(0.,0.,-1.));
#225=DIRECTION('',(0.,0.,-1.));
#226=DIRECTION('',(1.,3.02023373845634E-16,0.));
#227=DIRECTION('',(0.,0.,-1.));
#228=DIRECTION('center_axis',(0.866025403784439,-0.5,0.));
#229=DIRECTION('ref_axis',(0.,0.,-1.));
#230=DIRECTION('',(0.,0.,-1.));
#231=DIRECTION('',(0.5,0.866025403784439,0.));
#232=DIRECTION('center_axis',(0.866025403784438,0.500000000000001,0.));
#233=DIRECTION('ref_axis',(0.,0.,-1.));
#234=DIRECTION('',(0.,0.,-1.));
#235=DIRECTION('',(-0.500000000000001,0.866025403784438,0.));
#236=DIRECTION('center_axis',(-6.04046747691269E-16,1.,0.));
#237=DIRECTION('ref_axis',(0.,0.,1.));
#238=DIRECTION('',(0.,0.,-1.));
#239=DIRECTION('',(-1.,-6.04046747691269E-16,0.));
#240=DIRECTION('center_axis',(-0.866025403784439,0.5,0.));
#241=DIRECTION('ref_axis',(0.,0.,1.));
#242=DIRECTION('',(0.,0.,-1.));
#243=DIRECTION('',(-0.5,-0.866025403784439,0.));
#244=DIRECTION('center_axis',(-0.866025403784438,-0.5,0.));
#245=DIRECTION('ref_axis',(0.,0.,1.));
#246=DIRECTION('',(0.5,-0.866025403784438,0.));
#247=DIRECTION('center_axis',(-1.6184186001171E-32,-4.10536659470161E-48,
1.));
#248=DIRECTION('ref_axis',(1.,0.,0.));
#249=DIRECTION('center_axis',(6.12323399573676E-17,0.,1.));
#250=DIRECTION('ref_axis',(1.,0.,0.));
#251=CARTESIAN_POINT('',(0.,0.,0.));
#252=CARTESIAN_POINT('Origin',(0.,0.,0.431226497308104));
#253=CARTESIAN_POINT('',(0.1645,-2.0145439845974E-17,0.437));
#254=CARTESIAN_POINT('Origin',(0.,0.,0.437));
#255=CARTESIAN_POINT('',(0.1845,2.25947334442687E-17,0.425452994616207));
#256=CARTESIAN_POINT('Origin',(0.,0.,0.425452994616207));
#257=CARTESIAN_POINT('Origin',(0.,0.,0.));
#258=CARTESIAN_POINT('',(0.1845,2.25947334442687E-17,0.0690548419991624));
#259=CARTESIAN_POINT('Origin',(0.,0.,0.0690548419991624));
#260=CARTESIAN_POINT('Origin',(0.,0.,0.437));
#261=CARTESIAN_POINT('',(0.,0.119,0.437));
#262=CARTESIAN_POINT('Origin',(0.,0.,0.437));
#263=CARTESIAN_POINT('Origin',(0.,0.,0.3775));
#264=CARTESIAN_POINT('',(0.0542709253038247,0.0940000000000001,0.42654185060765));
#265=CARTESIAN_POINT('',(-0.0542709253038249,0.094,0.42654185060765));
#266=CARTESIAN_POINT('Ctrl Pts',(0.0542709253038247,0.094,0.42654185060765));
#267=CARTESIAN_POINT('Ctrl Pts',(-3.27821759239712E-17,0.094,0.399406387955737));
#268=CARTESIAN_POINT('Ctrl Pts',(-0.0542709253038249,0.094,0.42654185060765));
#269=CARTESIAN_POINT('',(0.10854185060765,4.03331625243121E-17,0.42654185060765));
#270=CARTESIAN_POINT('Ctrl Pts',(0.10854185060765,4.03331625243121E-17,
0.42654185060765));
#271=CARTESIAN_POINT('Ctrl Pts',(0.0814063879557372,0.047,0.399406387955737));
#272=CARTESIAN_POINT('Ctrl Pts',(0.0542709253038247,0.094,0.42654185060765));
#273=CARTESIAN_POINT('',(0.0542709253038248,-0.0939999999999999,0.42654185060765));
#274=CARTESIAN_POINT('Ctrl Pts',(0.0542709253038248,-0.0939999999999999,
0.42654185060765));
#275=CARTESIAN_POINT('Ctrl Pts',(0.0814063879557372,-0.0469999999999999,
0.399406387955737));
#276=CARTESIAN_POINT('Ctrl Pts',(0.10854185060765,4.03331625243121E-17,
0.42654185060765));
#277=CARTESIAN_POINT('',(-0.0542709253038247,-0.094,0.42654185060765));
#278=CARTESIAN_POINT('Ctrl Pts',(-0.0542709253038247,-0.094,0.42654185060765));
#279=CARTESIAN_POINT('Ctrl Pts',(4.37095678986282E-17,-0.094,0.399406387955737));
#280=CARTESIAN_POINT('Ctrl Pts',(0.0542709253038248,-0.0939999999999999,
0.42654185060765));
#281=CARTESIAN_POINT('',(-0.10854185060765,-2.12102265686622E-17,0.42654185060765));
#282=CARTESIAN_POINT('Ctrl Pts',(-0.10854185060765,-2.12102265686622E-17,
0.42654185060765));
#283=CARTESIAN_POINT('Ctrl Pts',(-0.0814063879557372,-0.047,0.399406387955737));
#284=CARTESIAN_POINT('Ctrl Pts',(-0.0542709253038247,-0.094,0.42654185060765));
#285=CARTESIAN_POINT('Ctrl Pts',(-0.0542709253038249,0.094,0.42654185060765));
#286=CARTESIAN_POINT('Ctrl Pts',(-0.0814063879557372,0.047,0.399406387955737));
#287=CARTESIAN_POINT('Ctrl Pts',(-0.10854185060765,-2.12102265686622E-17,
0.42654185060765));
#288=CARTESIAN_POINT('Origin',(-0.0542709253038248,-0.094,0.437));
#289=CARTESIAN_POINT('',(0.0542709253038248,-0.0939999999999999,0.187));
#290=CARTESIAN_POINT('',(0.0542709253038248,-0.0939999999999999,0.437));
#291=CARTESIAN_POINT('',(-0.0542709253038248,-0.094,0.187));
#292=CARTESIAN_POINT('',(0.0542709253038248,-0.0939999999999999,0.187));
#293=CARTESIAN_POINT('',(-0.0542709253038248,-0.094,0.437));
#294=CARTESIAN_POINT('Origin',(0.0542709253038248,-0.0939999999999999,0.437));
#295=CARTESIAN_POINT('',(0.10854185060765,4.03331625243121E-17,0.187));
#296=CARTESIAN_POINT('',(0.10854185060765,4.03331625243121E-17,0.437));
#297=CARTESIAN_POINT('',(0.10854185060765,4.03331625243121E-17,0.187));
#298=CARTESIAN_POINT('Origin',(0.10854185060765,4.03331625243121E-17,0.437));
#299=CARTESIAN_POINT('',(0.0542709253038247,0.094,0.187));
#300=CARTESIAN_POINT('',(0.0542709253038247,0.094,0.437));
#301=CARTESIAN_POINT('',(0.0542709253038247,0.094,0.187));
#302=CARTESIAN_POINT('Origin',(0.0542709253038247,0.094,0.437));
#303=CARTESIAN_POINT('',(-0.0542709253038249,0.094,0.187));
#304=CARTESIAN_POINT('',(-0.0542709253038249,0.094,0.437));
#305=CARTESIAN_POINT('',(-0.0542709253038249,0.094,0.187));
#306=CARTESIAN_POINT('Origin',(-0.0542709253038249,0.094,0.437));
#307=CARTESIAN_POINT('',(-0.10854185060765,-2.12102265686622E-17,0.187));
#308=CARTESIAN_POINT('',(-0.10854185060765,-2.12102265686622E-17,0.437));
#309=CARTESIAN_POINT('',(-0.10854185060765,-2.12102265686622E-17,0.187));
#310=CARTESIAN_POINT('Origin',(-0.10854185060765,-2.12102265686622E-17,
0.437));
#311=CARTESIAN_POINT('',(-0.0542709253038248,-0.094,0.187));
#312=CARTESIAN_POINT('Origin',(7.53327780071054E-18,3.00503279303069E-17,
0.187));
#313=CARTESIAN_POINT('Origin',(0.,-3.44125750560406E-17,0.281));
#314=UNCERTAINTY_MEASURE_WITH_UNIT(LENGTH_MEASURE(0.000393700787401575),
#318,'DISTANCE_ACCURACY_VALUE',
'Maximum model space distance between geometric entities at asserted c
onnectivities');
#315=UNCERTAINTY_MEASURE_WITH_UNIT(LENGTH_MEASURE(1.E-6),#319,
'DISTANCE_ACCURACY_VALUE',
'Maximum model space distance between geometric entities at asserted c
onnectivities');
#316=(
GEOMETRIC_REPRESENTATION_CONTEXT(3)
GLOBAL_UNCERTAINTY_ASSIGNED_CONTEXT((#314))
GLOBAL_UNIT_ASSIGNED_CONTEXT((#318,#324,#321))
REPRESENTATION_CONTEXT('','3D')
);
#317=(
GEOMETRIC_REPRESENTATION_CONTEXT(3)
GLOBAL_UNCERTAINTY_ASSIGNED_CONTEXT((#315))
GLOBAL_UNIT_ASSIGNED_CONTEXT((#319,#324,#321))
REPRESENTATION_CONTEXT('','3D')
);
#318=(
CONVERSION_BASED_UNIT('__CONSTANT UNIT inch',#320)
LENGTH_UNIT()
NAMED_UNIT(#323)
);
#319=(
LENGTH_UNIT()
NAMED_UNIT(*)
SI_UNIT(.MILLI.,.METRE.)
);
#320=LENGTH_MEASURE_WITH_UNIT(LENGTH_MEASURE(25.4),#319);
#321=(
NAMED_UNIT(*)
SI_UNIT($,.STERADIAN.)
SOLID_ANGLE_UNIT()
);
#322=DIMENSIONAL_EXPONENTS(0.,0.,0.,0.,0.,0.,0.);
#323=DIMENSIONAL_EXPONENTS(1.,0.,0.,0.,0.,0.,0.);
#324=(
CONVERSION_BASED_UNIT('degree',#326)
NAMED_UNIT(#322)
PLANE_ANGLE_UNIT()
);
#325=(
NAMED_UNIT(*)
PLANE_ANGLE_UNIT()
SI_UNIT($,.RADIAN.)
);
#326=PLANE_ANGLE_MEASURE_WITH_UNIT(PLANE_ANGLE_MEASURE(0.01745329252),#325);
#327=SHAPE_DEFINITION_REPRESENTATION(#328,#329);
#328=PRODUCT_DEFINITION_SHAPE('',$,#331);
#329=SHAPE_REPRESENTATION('',(#188),#316);
#330=PRODUCT_DEFINITION_CONTEXT('part definition',#335,'design');
#331=PRODUCT_DEFINITION('13475','13475',#332,#330);
#332=PRODUCT_DEFINITION_FORMATION('',$,#337);
#333=PRODUCT_RELATED_PRODUCT_CATEGORY('13475','13475',(#337));
#334=APPLICATION_PROTOCOL_DEFINITION('international standard',
'automotive_design',2009,#335);
#335=APPLICATION_CONTEXT(
'Core Data for Automotive Mechanical Design Process');
#336=PRODUCT_CONTEXT('part definition',#335,'mechanical');
#337=PRODUCT('13475','13475',$,(#336));
#338=PRESENTATION_STYLE_ASSIGNMENT((#339));
#339=SURFACE_STYLE_USAGE(.BOTH.,#340);
#340=SURFACE_SIDE_STYLE($,(#341));
#341=SURFACE_STYLE_FILL_AREA(#342);
#342=FILL_AREA_STYLE($,(#343));
#343=FILL_AREA_STYLE_COLOUR($,#344);
#344=COLOUR_RGB('',0.847058823529412,0.83921568627451,0.83921568627451);
ENDSEC;
END-ISO-10303-21;
