ISO-10303-21;
HEADER;
/* Generated by software containing ST-Developer
 * from STEP Tools, Inc. (www.steptools.com) 
 */

FILE_DESCRIPTION(
/* description */ (''),
/* implementation_level */ '2;1');

FILE_NAME(
/* name */ '\\\\SERVER1\\dwgs\\product\\Screws\\14237.stp',
/* time_stamp */ '2016-09-23T13:37:18-04:00',
/* author */ ('cridley'),
/* organization */ (''),
/* preprocessor_version */ 'ST-DEVELOPER v15.6',
/* originating_system */ 'Autodesk Inventor 2015',
/* authorisation */ '');

FILE_SCHEMA (('AUTOMOTIVE_DESIGN { 1 0 10303 214 3 1 1 }'));
ENDSEC;

DATA;
#10=MECHANICAL_DESIGN_GEOMETRIC_PRESENTATION_REPRESENTATION('',(#13),#337);
#11=SHAPE_REPRESENTATION_RELATIONSHIP('SRR','None',#349,#12);
#12=ADVANCED_BREP_SHAPE_REPRESENTATION($,(#14),#336);
#13=STYLED_ITEM('',(#358),#14);
#14=MANIFOLD_SOLID_BREP('Solid1',#198);
#15=SPHERICAL_SURFACE('',#215,0.436778528035606);
#16=CYLINDRICAL_SURFACE('',#208,0.3125);
#17=LINE('',#298,#29);
#18=LINE('',#300,#30);
#19=LINE('',#301,#31);
#20=LINE('',#304,#32);
#21=LINE('',#305,#33);
#22=LINE('',#308,#34);
#23=LINE('',#309,#35);
#24=LINE('',#321,#36);
#25=LINE('',#322,#37);
#26=LINE('',#325,#38);
#27=LINE('',#326,#39);
#28=LINE('',#328,#40);
#29=VECTOR('',#226,0.35632909936926);
#30=VECTOR('',#227,0.217661051484489);
#31=VECTOR('',#228,0.35632909936926);
#32=VECTOR('',#231,0.35632909936926);
#33=VECTOR('',#232,0.217661051484489);
#34=VECTOR('',#235,0.35632909936926);
#35=VECTOR('',#236,0.217661051484489);
#36=VECTOR('',#251,0.35632909936926);
#37=VECTOR('',#252,0.217661051484489);
#38=VECTOR('',#255,0.35632909936926);
#39=VECTOR('',#256,0.217661051484489);
#40=VECTOR('',#259,0.217661051484489);
#41=PLANE('',#202);
#42=PLANE('',#203);
#43=PLANE('',#204);
#44=PLANE('',#210);
#45=PLANE('',#211);
#46=PLANE('',#212);
#47=PLANE('',#213);
#48=PLANE('',#214);
#49=FACE_BOUND('',#73,.T.);
#50=FACE_BOUND('',#78,.T.);
#51=FACE_BOUND('',#80,.T.);
#52=FACE_BOUND('',#82,.T.);
#53=FACE_BOUND('',#89,.T.);
#54=CIRCLE('',#201,0.25);
#55=CIRCLE('',#206,0.2875);
#56=CIRCLE('',#207,0.3125);
#57=CIRCLE('',#209,0.3125);
#58=CIRCLE('',#216,0.292052033514536);
#59=FACE_OUTER_BOUND('',#72,.T.);
#60=FACE_OUTER_BOUND('',#74,.T.);
#61=FACE_OUTER_BOUND('',#75,.T.);
#62=FACE_OUTER_BOUND('',#76,.T.);
#63=FACE_OUTER_BOUND('',#77,.T.);
#64=FACE_OUTER_BOUND('',#79,.T.);
#65=FACE_OUTER_BOUND('',#81,.T.);
#66=FACE_OUTER_BOUND('',#83,.T.);
#67=FACE_OUTER_BOUND('',#84,.T.);
#68=FACE_OUTER_BOUND('',#85,.T.);
#69=FACE_OUTER_BOUND('',#86,.T.);
#70=FACE_OUTER_BOUND('',#87,.T.);
#71=FACE_OUTER_BOUND('',#88,.T.);
#72=EDGE_LOOP('',(#136,#137,#138,#139,#140,#141));
#73=EDGE_LOOP('',(#142));
#74=EDGE_LOOP('',(#143,#144,#145,#146));
#75=EDGE_LOOP('',(#147,#148,#149,#150));
#76=EDGE_LOOP('',(#151,#152,#153,#154));
#77=EDGE_LOOP('',(#155));
#78=EDGE_LOOP('',(#156));
#79=EDGE_LOOP('',(#157));
#80=EDGE_LOOP('',(#158));
#81=EDGE_LOOP('',(#159));
#82=EDGE_LOOP('',(#160));
#83=EDGE_LOOP('',(#161,#162,#163,#164));
#84=EDGE_LOOP('',(#165,#166,#167,#168));
#85=EDGE_LOOP('',(#169,#170,#171,#172));
#86=EDGE_LOOP('',(#173,#174,#175,#176,#177,#178));
#87=EDGE_LOOP('',(#179));
#88=EDGE_LOOP('',(#180));
#89=EDGE_LOOP('',(#181));
#90=(
BOUNDED_CURVE()
B_SPLINE_CURVE(2,(#272,#273,#274),.UNSPECIFIED.,.F.,.F.)
B_SPLINE_CURVE_WITH_KNOTS((3,3),(0.121418509482137,0.732089523520483),
 .UNSPECIFIED.)
CURVE()
GEOMETRIC_REPRESENTATION_ITEM()
RATIONAL_B_SPLINE_CURVE((1.07962099861006,1.24663894833954,1.07962099861006))
REPRESENTATION_ITEM('')
);
#91=(
BOUNDED_CURVE()
B_SPLINE_CURVE(2,(#276,#277,#278),.UNSPECIFIED.,.F.,.F.)
B_SPLINE_CURVE_WITH_KNOTS((3,3),(0.121418509482137,0.732089523520482),
 .UNSPECIFIED.)
CURVE()
GEOMETRIC_REPRESENTATION_ITEM()
RATIONAL_B_SPLINE_CURVE((1.07962099861006,1.24663894833954,1.07962099861006))
REPRESENTATION_ITEM('')
);
#92=(
BOUNDED_CURVE()
B_SPLINE_CURVE(2,(#280,#281,#282),.UNSPECIFIED.,.F.,.F.)
B_SPLINE_CURVE_WITH_KNOTS((3,3),(0.121418509482137,0.732089523520483),
 .UNSPECIFIED.)
CURVE()
GEOMETRIC_REPRESENTATION_ITEM()
RATIONAL_B_SPLINE_CURVE((1.07962099861006,1.24663894833954,1.07962099861006))
REPRESENTATION_ITEM('')
);
#93=(
BOUNDED_CURVE()
B_SPLINE_CURVE(2,(#284,#285,#286),.UNSPECIFIED.,.F.,.F.)
B_SPLINE_CURVE_WITH_KNOTS((3,3),(0.121418509482137,0.732089523520483),
 .UNSPECIFIED.)
CURVE()
GEOMETRIC_REPRESENTATION_ITEM()
RATIONAL_B_SPLINE_CURVE((1.07962099861006,1.24663894833954,1.07962099861006))
REPRESENTATION_ITEM('')
);
#94=(
BOUNDED_CURVE()
B_SPLINE_CURVE(2,(#288,#289,#290),.UNSPECIFIED.,.F.,.F.)
B_SPLINE_CURVE_WITH_KNOTS((3,3),(0.121418509482137,0.732089523520483),
 .UNSPECIFIED.)
CURVE()
GEOMETRIC_REPRESENTATION_ITEM()
RATIONAL_B_SPLINE_CURVE((1.07962099861006,1.24663894833954,1.07962099861006))
REPRESENTATION_ITEM('')
);
#95=(
BOUNDED_CURVE()
B_SPLINE_CURVE(2,(#291,#292,#293),.UNSPECIFIED.,.F.,.F.)
B_SPLINE_CURVE_WITH_KNOTS((3,3),(0.121418509482137,0.732089523520483),
 .UNSPECIFIED.)
CURVE()
GEOMETRIC_REPRESENTATION_ITEM()
RATIONAL_B_SPLINE_CURVE((1.07962099861007,1.24663894833954,1.07962099861007))
REPRESENTATION_ITEM('')
);
#96=VERTEX_POINT('',#270);
#97=VERTEX_POINT('',#271);
#98=VERTEX_POINT('',#275);
#99=VERTEX_POINT('',#279);
#100=VERTEX_POINT('',#283);
#101=VERTEX_POINT('',#287);
#102=VERTEX_POINT('',#294);
#103=VERTEX_POINT('',#297);
#104=VERTEX_POINT('',#299);
#105=VERTEX_POINT('',#303);
#106=VERTEX_POINT('',#307);
#107=VERTEX_POINT('',#311);
#108=VERTEX_POINT('',#313);
#109=VERTEX_POINT('',#316);
#110=VERTEX_POINT('',#320);
#111=VERTEX_POINT('',#324);
#112=VERTEX_POINT('',#331);
#113=EDGE_CURVE('',#96,#97,#90,.T.);
#114=EDGE_CURVE('',#98,#96,#91,.T.);
#115=EDGE_CURVE('',#99,#98,#92,.T.);
#116=EDGE_CURVE('',#100,#99,#93,.T.);
#117=EDGE_CURVE('',#101,#100,#94,.T.);
#118=EDGE_CURVE('',#97,#101,#95,.T.);
#119=EDGE_CURVE('',#102,#102,#54,.T.);
#120=EDGE_CURVE('',#99,#103,#17,.T.);
#121=EDGE_CURVE('',#104,#103,#18,.T.);
#122=EDGE_CURVE('',#100,#104,#19,.T.);
#123=EDGE_CURVE('',#98,#105,#20,.T.);
#124=EDGE_CURVE('',#103,#105,#21,.T.);
#125=EDGE_CURVE('',#96,#106,#22,.T.);
#126=EDGE_CURVE('',#105,#106,#23,.T.);
#127=EDGE_CURVE('',#107,#107,#55,.T.);
#128=EDGE_CURVE('',#108,#108,#56,.T.);
#129=EDGE_CURVE('',#109,#109,#57,.T.);
#130=EDGE_CURVE('',#97,#110,#24,.T.);
#131=EDGE_CURVE('',#106,#110,#25,.T.);
#132=EDGE_CURVE('',#101,#111,#26,.T.);
#133=EDGE_CURVE('',#110,#111,#27,.T.);
#134=EDGE_CURVE('',#111,#104,#28,.T.);
#135=EDGE_CURVE('',#112,#112,#58,.T.);
#136=ORIENTED_EDGE('',*,*,#113,.F.);
#137=ORIENTED_EDGE('',*,*,#114,.F.);
#138=ORIENTED_EDGE('',*,*,#115,.F.);
#139=ORIENTED_EDGE('',*,*,#116,.F.);
#140=ORIENTED_EDGE('',*,*,#117,.F.);
#141=ORIENTED_EDGE('',*,*,#118,.F.);
#142=ORIENTED_EDGE('',*,*,#119,.F.);
#143=ORIENTED_EDGE('',*,*,#116,.T.);
#144=ORIENTED_EDGE('',*,*,#120,.T.);
#145=ORIENTED_EDGE('',*,*,#121,.F.);
#146=ORIENTED_EDGE('',*,*,#122,.F.);
#147=ORIENTED_EDGE('',*,*,#115,.T.);
#148=ORIENTED_EDGE('',*,*,#123,.T.);
#149=ORIENTED_EDGE('',*,*,#124,.F.);
#150=ORIENTED_EDGE('',*,*,#120,.F.);
#151=ORIENTED_EDGE('',*,*,#114,.T.);
#152=ORIENTED_EDGE('',*,*,#125,.T.);
#153=ORIENTED_EDGE('',*,*,#126,.F.);
#154=ORIENTED_EDGE('',*,*,#123,.F.);
#155=ORIENTED_EDGE('',*,*,#127,.T.);
#156=ORIENTED_EDGE('',*,*,#128,.T.);
#157=ORIENTED_EDGE('',*,*,#129,.T.);
#158=ORIENTED_EDGE('',*,*,#128,.F.);
#159=ORIENTED_EDGE('',*,*,#127,.F.);
#160=ORIENTED_EDGE('',*,*,#119,.T.);
#161=ORIENTED_EDGE('',*,*,#113,.T.);
#162=ORIENTED_EDGE('',*,*,#130,.T.);
#163=ORIENTED_EDGE('',*,*,#131,.F.);
#164=ORIENTED_EDGE('',*,*,#125,.F.);
#165=ORIENTED_EDGE('',*,*,#118,.T.);
#166=ORIENTED_EDGE('',*,*,#132,.T.);
#167=ORIENTED_EDGE('',*,*,#133,.F.);
#168=ORIENTED_EDGE('',*,*,#130,.F.);
#169=ORIENTED_EDGE('',*,*,#117,.T.);
#170=ORIENTED_EDGE('',*,*,#122,.T.);
#171=ORIENTED_EDGE('',*,*,#134,.F.);
#172=ORIENTED_EDGE('',*,*,#132,.F.);
#173=ORIENTED_EDGE('',*,*,#131,.T.);
#174=ORIENTED_EDGE('',*,*,#133,.T.);
#175=ORIENTED_EDGE('',*,*,#134,.T.);
#176=ORIENTED_EDGE('',*,*,#121,.T.);
#177=ORIENTED_EDGE('',*,*,#124,.T.);
#178=ORIENTED_EDGE('',*,*,#126,.T.);
#179=ORIENTED_EDGE('',*,*,#135,.F.);
#180=ORIENTED_EDGE('',*,*,#129,.F.);
#181=ORIENTED_EDGE('',*,*,#135,.T.);
#182=CONICAL_SURFACE('',#200,0.125,60.);
#183=CONICAL_SURFACE('',#205,0.3,45.);
#184=CONICAL_SURFACE('',#217,0.303026016757268,26.);
#185=ADVANCED_FACE('',(#59,#49),#182,.F.);
#186=ADVANCED_FACE('',(#60),#41,.F.);
#187=ADVANCED_FACE('',(#61),#42,.F.);
#188=ADVANCED_FACE('',(#62),#43,.F.);
#189=ADVANCED_FACE('',(#63,#50),#183,.T.);
#190=ADVANCED_FACE('',(#64,#51),#16,.T.);
#191=ADVANCED_FACE('',(#65,#52),#44,.F.);
#192=ADVANCED_FACE('',(#66),#45,.F.);
#193=ADVANCED_FACE('',(#67),#46,.F.);
#194=ADVANCED_FACE('',(#68),#47,.F.);
#195=ADVANCED_FACE('',(#69),#48,.T.);
#196=ADVANCED_FACE('',(#70),#15,.T.);
#197=ADVANCED_FACE('',(#71,#53),#184,.T.);
#198=CLOSED_SHELL('',(#185,#186,#187,#188,#189,#190,#191,#192,#193,#194,
#195,#196,#197));
#199=AXIS2_PLACEMENT_3D('placement',#268,#218,#219);
#200=AXIS2_PLACEMENT_3D('',#269,#220,#221);
#201=AXIS2_PLACEMENT_3D('',#295,#222,#223);
#202=AXIS2_PLACEMENT_3D('',#296,#224,#225);
#203=AXIS2_PLACEMENT_3D('',#302,#229,#230);
#204=AXIS2_PLACEMENT_3D('',#306,#233,#234);
#205=AXIS2_PLACEMENT_3D('',#310,#237,#238);
#206=AXIS2_PLACEMENT_3D('',#312,#239,#240);
#207=AXIS2_PLACEMENT_3D('',#314,#241,#242);
#208=AXIS2_PLACEMENT_3D('',#315,#243,#244);
#209=AXIS2_PLACEMENT_3D('',#317,#245,#246);
#210=AXIS2_PLACEMENT_3D('',#318,#247,#248);
#211=AXIS2_PLACEMENT_3D('',#319,#249,#250);
#212=AXIS2_PLACEMENT_3D('',#323,#253,#254);
#213=AXIS2_PLACEMENT_3D('',#327,#257,#258);
#214=AXIS2_PLACEMENT_3D('',#329,#260,#261);
#215=AXIS2_PLACEMENT_3D('',#330,#262,#263);
#216=AXIS2_PLACEMENT_3D('',#332,#264,#265);
#217=AXIS2_PLACEMENT_3D('',#333,#266,#267);
#218=DIRECTION('axis',(0.,0.,1.));
#219=DIRECTION('refdir',(1.,0.,0.));
#220=DIRECTION('center_axis',(1.57843660395307E-16,0.,1.));
#221=DIRECTION('ref_axis',(-1.,0.,0.));
#222=DIRECTION('center_axis',(0.,0.,-1.));
#223=DIRECTION('ref_axis',(-1.,0.,0.));
#224=DIRECTION('center_axis',(1.,-5.02037084730144E-16,0.));
#225=DIRECTION('ref_axis',(0.,0.,-1.));
#226=DIRECTION('',(0.,0.,-1.));
#227=DIRECTION('',(5.02037084730144E-16,1.,0.));
#228=DIRECTION('',(0.,0.,-1.));
#229=DIRECTION('center_axis',(0.5,0.866025403784438,0.));
#230=DIRECTION('ref_axis',(0.,0.,-1.));
#231=DIRECTION('',(0.,0.,-1.));
#232=DIRECTION('',(-0.866025403784438,0.5,0.));
#233=DIRECTION('center_axis',(-0.5,0.866025403784439,0.));
#234=DIRECTION('ref_axis',(0.,0.,1.));
#235=DIRECTION('',(0.,0.,-1.));
#236=DIRECTION('',(-0.866025403784439,-0.5,0.));
#237=DIRECTION('center_axis',(0.,0.,-1.));
#238=DIRECTION('ref_axis',(-1.,0.,0.));
#239=DIRECTION('center_axis',(0.,0.,-1.));
#240=DIRECTION('ref_axis',(-1.,0.,0.));
#241=DIRECTION('center_axis',(0.,0.,1.));
#242=DIRECTION('ref_axis',(-1.,0.,0.));
#243=DIRECTION('center_axis',(0.,0.,-1.));
#244=DIRECTION('ref_axis',(-1.,0.,0.));
#245=DIRECTION('center_axis',(0.,0.,1.));
#246=DIRECTION('ref_axis',(-1.,0.,0.));
#247=DIRECTION('center_axis',(0.,0.,-1.));
#248=DIRECTION('ref_axis',(-1.,0.,0.));
#249=DIRECTION('center_axis',(-1.,3.01222250838086E-16,0.));
#250=DIRECTION('ref_axis',(0.,0.,1.));
#251=DIRECTION('',(0.,0.,-1.));
#252=DIRECTION('',(-3.01222250838086E-16,-1.,0.));
#253=DIRECTION('center_axis',(-0.5,-0.866025403784438,0.));
#254=DIRECTION('ref_axis',(0.,0.,1.));
#255=DIRECTION('',(0.,0.,-1.));
#256=DIRECTION('',(0.866025403784438,-0.5,0.));
#257=DIRECTION('center_axis',(0.5,-0.866025403784439,0.));
#258=DIRECTION('ref_axis',(0.,0.,-1.));
#259=DIRECTION('',(0.866025403784439,0.5,0.));
#260=DIRECTION('center_axis',(0.,0.,1.));
#261=DIRECTION('ref_axis',(1.,0.,0.));
#262=DIRECTION('center_axis',(6.12323399573677E-17,0.,1.));
#263=DIRECTION('ref_axis',(1.,0.,0.));
#264=DIRECTION('center_axis',(0.,0.,1.));
#265=DIRECTION('ref_axis',(-1.,0.,0.));
#266=DIRECTION('center_axis',(0.,0.,1.));
#267=DIRECTION('ref_axis',(-1.,0.,0.));
#268=CARTESIAN_POINT('',(0.,0.,0.));
#269=CARTESIAN_POINT('Origin',(-1.13913849773883E-17,0.,-0.0721687836487032));
#270=CARTESIAN_POINT('',(-0.1885,0.108830525742244,-0.0186709006307398));
#271=CARTESIAN_POINT('',(-0.1885,-0.108830525742244,-0.0186709006307397));
#272=CARTESIAN_POINT('Ctrl Pts',(-0.1885,0.108830525742244,-0.0186709006307398));
#273=CARTESIAN_POINT('Ctrl Pts',(-0.1885,5.25880738780371E-14,-0.050087567297312));
#274=CARTESIAN_POINT('Ctrl Pts',(-0.1885,-0.108830525742244,-0.0186709006307397));
#275=CARTESIAN_POINT('',(1.41606025303376E-17,0.217661051484489,-0.0186709006307398));
#276=CARTESIAN_POINT('Ctrl Pts',(1.41606025303376E-17,0.217661051484489,
-0.0186709006307398));
#277=CARTESIAN_POINT('Ctrl Pts',(-0.0942499999999545,0.163245788613393,
-0.050087567297312));
#278=CARTESIAN_POINT('Ctrl Pts',(-0.1885,0.108830525742244,-0.0186709006307398));
#279=CARTESIAN_POINT('',(0.1885,0.108830525742244,-0.0186709006307399));
#280=CARTESIAN_POINT('Ctrl Pts',(0.1885,0.108830525742244,-0.0186709006307399));
#281=CARTESIAN_POINT('Ctrl Pts',(0.0942500000000455,0.16324578861334,-0.0500875672973121));
#282=CARTESIAN_POINT('Ctrl Pts',(1.41606025303376E-17,0.217661051484489,
-0.0186709006307398));
#283=CARTESIAN_POINT('',(0.1885,-0.108830525742245,-0.0186709006307398));
#284=CARTESIAN_POINT('Ctrl Pts',(0.1885,-0.108830525742245,-0.0186709006307398));
#285=CARTESIAN_POINT('Ctrl Pts',(0.1885,-5.27192025817329E-14,-0.050087567297312));
#286=CARTESIAN_POINT('Ctrl Pts',(0.1885,0.108830525742244,-0.0186709006307399));
#287=CARTESIAN_POINT('',(-1.07043434314923E-16,-0.217661051484489,-0.0186709006307398));
#288=CARTESIAN_POINT('Ctrl Pts',(-1.07043434314923E-16,-0.217661051484489,
-0.0186709006307398));
#289=CARTESIAN_POINT('Ctrl Pts',(0.0942499999999544,-0.163245788613393,
-0.050087567297312));
#290=CARTESIAN_POINT('Ctrl Pts',(0.1885,-0.108830525742245,-0.0186709006307398));
#291=CARTESIAN_POINT('Ctrl Pts',(-0.1885,-0.108830525742244,-0.0186709006307397));
#292=CARTESIAN_POINT('Ctrl Pts',(-0.0942500000000457,-0.16324578861334,
-0.050087567297312));
#293=CARTESIAN_POINT('Ctrl Pts',(-1.07043434314923E-16,-0.217661051484489,
-0.0186709006307398));
#294=CARTESIAN_POINT('',(-0.25,0.,0.));
#295=CARTESIAN_POINT('Origin',(0.,0.,0.));
#296=CARTESIAN_POINT('Origin',(0.1885,-0.108830525742245,0.));
#297=CARTESIAN_POINT('',(0.1885,0.108830525742244,-0.375));
#298=CARTESIAN_POINT('',(0.1885,0.108830525742244,0.));
#299=CARTESIAN_POINT('',(0.1885,-0.108830525742245,-0.375));
#300=CARTESIAN_POINT('',(0.1885,0.108830525742244,-0.375));
#301=CARTESIAN_POINT('',(0.1885,-0.108830525742245,0.));
#302=CARTESIAN_POINT('Origin',(0.1885,0.108830525742244,0.));
#303=CARTESIAN_POINT('',(1.41606025303376E-17,0.217661051484489,-0.375));
#304=CARTESIAN_POINT('',(1.41606025303376E-17,0.217661051484489,0.));
#305=CARTESIAN_POINT('',(1.41606025303376E-17,0.217661051484489,-0.375));
#306=CARTESIAN_POINT('Origin',(1.41606025303376E-17,0.217661051484489,0.));
#307=CARTESIAN_POINT('',(-0.1885,0.108830525742244,-0.375));
#308=CARTESIAN_POINT('',(-0.1885,0.108830525742244,0.));
#309=CARTESIAN_POINT('',(-0.1885,0.108830525742244,-0.375));
#310=CARTESIAN_POINT('Origin',(0.,0.,-0.0125));
#311=CARTESIAN_POINT('',(0.2875,-3.52074326723933E-17,0.));
#312=CARTESIAN_POINT('Origin',(0.,0.,0.));
#313=CARTESIAN_POINT('',(0.3125,3.82689485569493E-17,-0.025));
#314=CARTESIAN_POINT('Origin',(0.,0.,-0.025));
#315=CARTESIAN_POINT('Origin',(0.,0.,0.));
#316=CARTESIAN_POINT('',(0.3125,3.82689485569493E-17,-0.659075455762369));
#317=CARTESIAN_POINT('Origin',(0.,0.,-0.659075455762369));
#318=CARTESIAN_POINT('Origin',(0.,0.,0.));
#319=CARTESIAN_POINT('Origin',(-0.1885,0.108830525742244,0.));
#320=CARTESIAN_POINT('',(-0.1885,-0.108830525742244,-0.375));
#321=CARTESIAN_POINT('',(-0.1885,-0.108830525742244,0.));
#322=CARTESIAN_POINT('',(-0.1885,-0.108830525742244,-0.375));
#323=CARTESIAN_POINT('Origin',(-0.1885,-0.108830525742244,0.));
#324=CARTESIAN_POINT('',(-1.07043434314923E-16,-0.217661051484489,-0.375));
#325=CARTESIAN_POINT('',(-1.07043434314923E-16,-0.217661051484489,0.));
#326=CARTESIAN_POINT('',(-1.07043434314923E-16,-0.217661051484489,-0.375));
#327=CARTESIAN_POINT('Origin',(-1.07043434314923E-16,-0.217661051484489,
0.));
#328=CARTESIAN_POINT('',(0.1885,-0.108830525742245,-0.375));
#329=CARTESIAN_POINT('Origin',(5.46369598732853E-18,-2.98019781127011E-17,
-0.375));
#330=CARTESIAN_POINT('Origin',(2.18547839493141E-17,0.,-0.376221471964394));
#331=CARTESIAN_POINT('',(-0.292052033514536,0.,-0.701));
#332=CARTESIAN_POINT('Origin',(0.,0.,-0.701));
#333=CARTESIAN_POINT('Origin',(0.,0.,-0.6785));
#334=UNCERTAINTY_MEASURE_WITH_UNIT(LENGTH_MEASURE(0.000393700787401575),
#338,'DISTANCE_ACCURACY_VALUE',
'Maximum model space distance between geometric entities at asserted c
onnectivities');
#335=UNCERTAINTY_MEASURE_WITH_UNIT(LENGTH_MEASURE(1.E-6),#339,
'DISTANCE_ACCURACY_VALUE',
'Maximum model space distance between geometric entities at asserted c
onnectivities');
#336=(
GEOMETRIC_REPRESENTATION_CONTEXT(3)
GLOBAL_UNCERTAINTY_ASSIGNED_CONTEXT((#334))
GLOBAL_UNIT_ASSIGNED_CONTEXT((#338,#344,#341))
REPRESENTATION_CONTEXT('','3D')
);
#337=(
GEOMETRIC_REPRESENTATION_CONTEXT(3)
GLOBAL_UNCERTAINTY_ASSIGNED_CONTEXT((#335))
GLOBAL_UNIT_ASSIGNED_CONTEXT((#339,#344,#341))
REPRESENTATION_CONTEXT('','3D')
);
#338=(
CONVERSION_BASED_UNIT('__CONSTANT UNIT inch',#340)
LENGTH_UNIT()
NAMED_UNIT(#343)
);
#339=(
LENGTH_UNIT()
NAMED_UNIT(*)
SI_UNIT(.MILLI.,.METRE.)
);
#340=LENGTH_MEASURE_WITH_UNIT(LENGTH_MEASURE(25.4),#339);
#341=(
NAMED_UNIT(*)
SI_UNIT($,.STERADIAN.)
SOLID_ANGLE_UNIT()
);
#342=DIMENSIONAL_EXPONENTS(0.,0.,0.,0.,0.,0.,0.);
#343=DIMENSIONAL_EXPONENTS(1.,0.,0.,0.,0.,0.,0.);
#344=(
CONVERSION_BASED_UNIT('degree',#346)
NAMED_UNIT(#342)
PLANE_ANGLE_UNIT()
);
#345=(
NAMED_UNIT(*)
PLANE_ANGLE_UNIT()
SI_UNIT($,.RADIAN.)
);
#346=PLANE_ANGLE_MEASURE_WITH_UNIT(PLANE_ANGLE_MEASURE(0.01745329252),#345);
#347=SHAPE_DEFINITION_REPRESENTATION(#348,#349);
#348=PRODUCT_DEFINITION_SHAPE('',$,#351);
#349=SHAPE_REPRESENTATION('',(#199),#336);
#350=PRODUCT_DEFINITION_CONTEXT('part definition',#355,'design');
#351=PRODUCT_DEFINITION('14237','14237',#352,#350);
#352=PRODUCT_DEFINITION_FORMATION('',$,#357);
#353=PRODUCT_RELATED_PRODUCT_CATEGORY('14237','14237',(#357));
#354=APPLICATION_PROTOCOL_DEFINITION('international standard',
'automotive_design',2009,#355);
#355=APPLICATION_CONTEXT(
'Core Data for Automotive Mechanical Design Process');
#356=PRODUCT_CONTEXT('part definition',#355,'mechanical');
#357=PRODUCT('14237','14237',$,(#356));
#358=PRESENTATION_STYLE_ASSIGNMENT((#359));
#359=SURFACE_STYLE_USAGE(.BOTH.,#360);
#360=SURFACE_SIDE_STYLE($,(#361));
#361=SURFACE_STYLE_FILL_AREA(#362);
#362=FILL_AREA_STYLE($,(#363));
#363=FILL_AREA_STYLE_COLOUR($,#364);
#364=COLOUR_RGB('',0.949019607843137,0.925490196078431,0.933333333333333);
ENDSEC;
END-ISO-10303-21;
