ISO-10303-21;
HEADER;
/* Generated by software containing ST-Developer
 * from STEP Tools, Inc. (www.steptools.com) 
 */

FILE_DESCRIPTION(
/* description */ (''),
/* implementation_level */ '2;1');

FILE_NAME(
/* name */ '\\\\SERVER1\\dwgs\\product\\Screws\\14240.stp',
/* time_stamp */ '2015-12-03T17:49:02-05:00',
/* author */ ('cridley'),
/* organization */ (''),
/* preprocessor_version */ 'ST-DEVELOPER v15.6',
/* originating_system */ 'Autodesk Inventor 2015',
/* authorisation */ '');

FILE_SCHEMA (('CONFIG_CONTROL_DESIGN'));
ENDSEC;

DATA;
#10=MECHANICAL_DESIGN_GEOMETRIC_PRESENTATION_REPRESENTATION('',(#13),#375);
#11=SHAPE_REPRESENTATION_RELATIONSHIP('SRR','None',#387,#12);
#12=ADVANCED_BREP_SHAPE_REPRESENTATION($,(#14),#374);
#13=STYLED_ITEM('',(#396),#14);
#14=MANIFOLD_SOLID_BREP('Solid1',#205);
#15=(
BOUNDED_SURFACE()
B_SPLINE_SURFACE(2,2,((#339,#340,#341,#342,#343,#344,#345,#346,#347),(#348,
#349,#350,#351,#352,#353,#354,#355,#356),(#357,#358,#359,#360,#361,#362,
#363,#364,#365)),.UNSPECIFIED.,.F.,.T.,.F.)
B_SPLINE_SURFACE_WITH_KNOTS((3,3),(3,2,2,2,3),(-1.41431749740515,-0.454293972268175),
(-3.14159265358979,-1.5707963267949,0.,1.5707963267949,3.14159265358979),
 .UNSPECIFIED.)
GEOMETRIC_REPRESENTATION_ITEM()
RATIONAL_B_SPLINE_SURFACE(((1.,0.707106781186548,1.,0.707106781186548,1.,
0.707106781186548,1.,0.707106781186548,1.),(0.88698949100874,0.627196283933484,
0.88698949100874,0.627196283933484,0.88698949100874,0.627196283933484,0.88698949100874,
0.627196283933484,0.88698949100874),(1.,0.707106781186548,1.,0.707106781186548,
1.,0.707106781186548,1.,0.707106781186548,1.)))
REPRESENTATION_ITEM('')
SURFACE()
);
#16=CYLINDRICAL_SURFACE('',#215,0.3435);
#17=LINE('',#305,#29);
#18=LINE('',#307,#30);
#19=LINE('',#308,#31);
#20=LINE('',#311,#32);
#21=LINE('',#312,#33);
#22=LINE('',#315,#34);
#23=LINE('',#316,#35);
#24=LINE('',#330,#36);
#25=LINE('',#331,#37);
#26=LINE('',#334,#38);
#27=LINE('',#335,#39);
#28=LINE('',#337,#40);
#29=VECTOR('',#233,0.341506350946109);
#30=VECTOR('',#234,0.21650635094611);
#31=VECTOR('',#235,0.341506350946109);
#32=VECTOR('',#238,0.341506350946109);
#33=VECTOR('',#239,0.21650635094611);
#34=VECTOR('',#242,0.341506350946109);
#35=VECTOR('',#243,0.21650635094611);
#36=VECTOR('',#260,0.34150635094611);
#37=VECTOR('',#261,0.21650635094611);
#38=VECTOR('',#264,0.341506350946109);
#39=VECTOR('',#265,0.216506350946109);
#40=VECTOR('',#268,0.216506350946109);
#41=PLANE('',#209);
#42=PLANE('',#210);
#43=PLANE('',#211);
#44=PLANE('',#218);
#45=PLANE('',#219);
#46=PLANE('',#220);
#47=PLANE('',#221);
#48=PLANE('',#222);
#49=PLANE('',#224);
#50=FACE_BOUND('',#74,.T.);
#51=FACE_BOUND('',#79,.T.);
#52=FACE_BOUND('',#81,.T.);
#53=FACE_BOUND('',#83,.T.);
#54=CIRCLE('',#208,0.25);
#55=CIRCLE('',#213,0.3125);
#56=CIRCLE('',#214,0.3435);
#57=CIRCLE('',#216,0.3435);
#58=CIRCLE('',#217,0.3435);
#59=CIRCLE('',#223,0.100000000000001);
#60=FACE_OUTER_BOUND('',#73,.T.);
#61=FACE_OUTER_BOUND('',#75,.T.);
#62=FACE_OUTER_BOUND('',#76,.T.);
#63=FACE_OUTER_BOUND('',#77,.T.);
#64=FACE_OUTER_BOUND('',#78,.T.);
#65=FACE_OUTER_BOUND('',#80,.T.);
#66=FACE_OUTER_BOUND('',#82,.T.);
#67=FACE_OUTER_BOUND('',#84,.T.);
#68=FACE_OUTER_BOUND('',#85,.T.);
#69=FACE_OUTER_BOUND('',#86,.T.);
#70=FACE_OUTER_BOUND('',#87,.T.);
#71=FACE_OUTER_BOUND('',#88,.T.);
#72=FACE_OUTER_BOUND('',#89,.T.);
#73=EDGE_LOOP('',(#140,#141,#142,#143,#144,#145));
#74=EDGE_LOOP('',(#146));
#75=EDGE_LOOP('',(#147,#148,#149,#150));
#76=EDGE_LOOP('',(#151,#152,#153,#154));
#77=EDGE_LOOP('',(#155,#156,#157,#158));
#78=EDGE_LOOP('',(#159));
#79=EDGE_LOOP('',(#160));
#80=EDGE_LOOP('',(#161,#162));
#81=EDGE_LOOP('',(#163));
#82=EDGE_LOOP('',(#164));
#83=EDGE_LOOP('',(#165));
#84=EDGE_LOOP('',(#166,#167,#168,#169));
#85=EDGE_LOOP('',(#170,#171,#172,#173));
#86=EDGE_LOOP('',(#174,#175,#176,#177));
#87=EDGE_LOOP('',(#178,#179,#180,#181,#182,#183));
#88=EDGE_LOOP('',(#184,#185,#186,#187,#188));
#89=EDGE_LOOP('',(#189));
#90=(
BOUNDED_CURVE()
B_SPLINE_CURVE(2,(#279,#280,#281),.UNSPECIFIED.,.F.,.F.)
B_SPLINE_CURVE_WITH_KNOTS((3,3),(0.130695537196501,0.767330074910415),
 .UNSPECIFIED.)
CURVE()
GEOMETRIC_REPRESENTATION_ITEM()
RATIONAL_B_SPLINE_CURVE((1.08290376865476,1.25042956467857,1.08290376865476))
REPRESENTATION_ITEM('')
);
#91=(
BOUNDED_CURVE()
B_SPLINE_CURVE(2,(#283,#284,#285),.UNSPECIFIED.,.F.,.F.)
B_SPLINE_CURVE_WITH_KNOTS((3,3),(0.130695537196501,0.767330074910415),
 .UNSPECIFIED.)
CURVE()
GEOMETRIC_REPRESENTATION_ITEM()
RATIONAL_B_SPLINE_CURVE((1.08290376865476,1.25042956467857,1.08290376865476))
REPRESENTATION_ITEM('')
);
#92=(
BOUNDED_CURVE()
B_SPLINE_CURVE(2,(#287,#288,#289),.UNSPECIFIED.,.F.,.F.)
B_SPLINE_CURVE_WITH_KNOTS((3,3),(0.130695537196501,0.767330074910415),
 .UNSPECIFIED.)
CURVE()
GEOMETRIC_REPRESENTATION_ITEM()
RATIONAL_B_SPLINE_CURVE((1.08290376865476,1.25042956467857,1.08290376865476))
REPRESENTATION_ITEM('')
);
#93=(
BOUNDED_CURVE()
B_SPLINE_CURVE(2,(#291,#292,#293),.UNSPECIFIED.,.F.,.F.)
B_SPLINE_CURVE_WITH_KNOTS((3,3),(0.130695537196501,0.767330074910416),
 .UNSPECIFIED.)
CURVE()
GEOMETRIC_REPRESENTATION_ITEM()
RATIONAL_B_SPLINE_CURVE((1.08290376865476,1.25042956467857,1.08290376865476))
REPRESENTATION_ITEM('')
);
#94=(
BOUNDED_CURVE()
B_SPLINE_CURVE(2,(#295,#296,#297),.UNSPECIFIED.,.F.,.F.)
B_SPLINE_CURVE_WITH_KNOTS((3,3),(0.130695537196501,0.767330074910415),
 .UNSPECIFIED.)
CURVE()
GEOMETRIC_REPRESENTATION_ITEM()
RATIONAL_B_SPLINE_CURVE((1.08290376865476,1.25042956467858,1.08290376865476))
REPRESENTATION_ITEM('')
);
#95=(
BOUNDED_CURVE()
B_SPLINE_CURVE(2,(#298,#299,#300),.UNSPECIFIED.,.F.,.F.)
B_SPLINE_CURVE_WITH_KNOTS((3,3),(0.130695537196501,0.767330074910415),
 .UNSPECIFIED.)
CURVE()
GEOMETRIC_REPRESENTATION_ITEM()
RATIONAL_B_SPLINE_CURVE((1.08290376865476,1.25042956467857,1.08290376865476))
REPRESENTATION_ITEM('')
);
#96=(
BOUNDED_CURVE()
B_SPLINE_CURVE(2,(#368,#369,#370),.UNSPECIFIED.,.F.,.F.)
B_SPLINE_CURVE_WITH_KNOTS((3,3),(-1.41431749740515,-0.454293972268175),
 .UNSPECIFIED.)
CURVE()
GEOMETRIC_REPRESENTATION_ITEM()
RATIONAL_B_SPLINE_CURVE((1.,0.88698949100874,1.))
REPRESENTATION_ITEM('')
);
#97=VERTEX_POINT('',#277);
#98=VERTEX_POINT('',#278);
#99=VERTEX_POINT('',#282);
#100=VERTEX_POINT('',#286);
#101=VERTEX_POINT('',#290);
#102=VERTEX_POINT('',#294);
#103=VERTEX_POINT('',#301);
#104=VERTEX_POINT('',#304);
#105=VERTEX_POINT('',#306);
#106=VERTEX_POINT('',#310);
#107=VERTEX_POINT('',#314);
#108=VERTEX_POINT('',#318);
#109=VERTEX_POINT('',#320);
#110=VERTEX_POINT('',#323);
#111=VERTEX_POINT('',#324);
#112=VERTEX_POINT('',#329);
#113=VERTEX_POINT('',#333);
#114=VERTEX_POINT('',#366);
#115=EDGE_CURVE('',#97,#98,#90,.T.);
#116=EDGE_CURVE('',#99,#97,#91,.T.);
#117=EDGE_CURVE('',#100,#99,#92,.T.);
#118=EDGE_CURVE('',#101,#100,#93,.T.);
#119=EDGE_CURVE('',#102,#101,#94,.T.);
#120=EDGE_CURVE('',#98,#102,#95,.T.);
#121=EDGE_CURVE('',#103,#103,#54,.T.);
#122=EDGE_CURVE('',#100,#104,#17,.T.);
#123=EDGE_CURVE('',#105,#104,#18,.T.);
#124=EDGE_CURVE('',#101,#105,#19,.T.);
#125=EDGE_CURVE('',#99,#106,#20,.T.);
#126=EDGE_CURVE('',#104,#106,#21,.T.);
#127=EDGE_CURVE('',#97,#107,#22,.T.);
#128=EDGE_CURVE('',#106,#107,#23,.T.);
#129=EDGE_CURVE('',#108,#108,#55,.T.);
#130=EDGE_CURVE('',#109,#109,#56,.T.);
#131=EDGE_CURVE('',#110,#111,#57,.T.);
#132=EDGE_CURVE('',#111,#110,#58,.T.);
#133=EDGE_CURVE('',#98,#112,#24,.T.);
#134=EDGE_CURVE('',#107,#112,#25,.T.);
#135=EDGE_CURVE('',#102,#113,#26,.T.);
#136=EDGE_CURVE('',#112,#113,#27,.T.);
#137=EDGE_CURVE('',#113,#105,#28,.T.);
#138=EDGE_CURVE('',#114,#114,#59,.T.);
#139=EDGE_CURVE('',#114,#111,#96,.T.);
#140=ORIENTED_EDGE('',*,*,#115,.F.);
#141=ORIENTED_EDGE('',*,*,#116,.F.);
#142=ORIENTED_EDGE('',*,*,#117,.F.);
#143=ORIENTED_EDGE('',*,*,#118,.F.);
#144=ORIENTED_EDGE('',*,*,#119,.F.);
#145=ORIENTED_EDGE('',*,*,#120,.F.);
#146=ORIENTED_EDGE('',*,*,#121,.F.);
#147=ORIENTED_EDGE('',*,*,#118,.T.);
#148=ORIENTED_EDGE('',*,*,#122,.T.);
#149=ORIENTED_EDGE('',*,*,#123,.F.);
#150=ORIENTED_EDGE('',*,*,#124,.F.);
#151=ORIENTED_EDGE('',*,*,#117,.T.);
#152=ORIENTED_EDGE('',*,*,#125,.T.);
#153=ORIENTED_EDGE('',*,*,#126,.F.);
#154=ORIENTED_EDGE('',*,*,#122,.F.);
#155=ORIENTED_EDGE('',*,*,#116,.T.);
#156=ORIENTED_EDGE('',*,*,#127,.T.);
#157=ORIENTED_EDGE('',*,*,#128,.F.);
#158=ORIENTED_EDGE('',*,*,#125,.F.);
#159=ORIENTED_EDGE('',*,*,#129,.T.);
#160=ORIENTED_EDGE('',*,*,#130,.T.);
#161=ORIENTED_EDGE('',*,*,#131,.T.);
#162=ORIENTED_EDGE('',*,*,#132,.T.);
#163=ORIENTED_EDGE('',*,*,#130,.F.);
#164=ORIENTED_EDGE('',*,*,#129,.F.);
#165=ORIENTED_EDGE('',*,*,#121,.T.);
#166=ORIENTED_EDGE('',*,*,#115,.T.);
#167=ORIENTED_EDGE('',*,*,#133,.T.);
#168=ORIENTED_EDGE('',*,*,#134,.F.);
#169=ORIENTED_EDGE('',*,*,#127,.F.);
#170=ORIENTED_EDGE('',*,*,#120,.T.);
#171=ORIENTED_EDGE('',*,*,#135,.T.);
#172=ORIENTED_EDGE('',*,*,#136,.F.);
#173=ORIENTED_EDGE('',*,*,#133,.F.);
#174=ORIENTED_EDGE('',*,*,#119,.T.);
#175=ORIENTED_EDGE('',*,*,#124,.T.);
#176=ORIENTED_EDGE('',*,*,#137,.F.);
#177=ORIENTED_EDGE('',*,*,#135,.F.);
#178=ORIENTED_EDGE('',*,*,#134,.T.);
#179=ORIENTED_EDGE('',*,*,#136,.T.);
#180=ORIENTED_EDGE('',*,*,#137,.T.);
#181=ORIENTED_EDGE('',*,*,#123,.T.);
#182=ORIENTED_EDGE('',*,*,#126,.T.);
#183=ORIENTED_EDGE('',*,*,#128,.T.);
#184=ORIENTED_EDGE('',*,*,#138,.F.);
#185=ORIENTED_EDGE('',*,*,#139,.T.);
#186=ORIENTED_EDGE('',*,*,#131,.F.);
#187=ORIENTED_EDGE('',*,*,#132,.F.);
#188=ORIENTED_EDGE('',*,*,#139,.F.);
#189=ORIENTED_EDGE('',*,*,#138,.T.);
#190=CONICAL_SURFACE('',#207,0.125,45.);
#191=CONICAL_SURFACE('',#212,0.328,45.);
#192=ADVANCED_FACE('',(#60,#50),#190,.F.);
#193=ADVANCED_FACE('',(#61),#41,.F.);
#194=ADVANCED_FACE('',(#62),#42,.F.);
#195=ADVANCED_FACE('',(#63),#43,.F.);
#196=ADVANCED_FACE('',(#64,#51),#191,.T.);
#197=ADVANCED_FACE('',(#65,#52),#16,.T.);
#198=ADVANCED_FACE('',(#66,#53),#44,.F.);
#199=ADVANCED_FACE('',(#67),#45,.F.);
#200=ADVANCED_FACE('',(#68),#46,.F.);
#201=ADVANCED_FACE('',(#69),#47,.F.);
#202=ADVANCED_FACE('',(#70),#48,.T.);
#203=ADVANCED_FACE('',(#71),#15,.F.);
#204=ADVANCED_FACE('',(#72),#49,.T.);
#205=CLOSED_SHELL('',(#192,#193,#194,#195,#196,#197,#198,#199,#200,#201,
#202,#203,#204));
#206=AXIS2_PLACEMENT_3D('placement',#275,#225,#226);
#207=AXIS2_PLACEMENT_3D('',#276,#227,#228);
#208=AXIS2_PLACEMENT_3D('',#302,#229,#230);
#209=AXIS2_PLACEMENT_3D('',#303,#231,#232);
#210=AXIS2_PLACEMENT_3D('',#309,#236,#237);
#211=AXIS2_PLACEMENT_3D('',#313,#240,#241);
#212=AXIS2_PLACEMENT_3D('',#317,#244,#245);
#213=AXIS2_PLACEMENT_3D('',#319,#246,#247);
#214=AXIS2_PLACEMENT_3D('',#321,#248,#249);
#215=AXIS2_PLACEMENT_3D('',#322,#250,#251);
#216=AXIS2_PLACEMENT_3D('',#325,#252,#253);
#217=AXIS2_PLACEMENT_3D('',#326,#254,#255);
#218=AXIS2_PLACEMENT_3D('',#327,#256,#257);
#219=AXIS2_PLACEMENT_3D('',#328,#258,#259);
#220=AXIS2_PLACEMENT_3D('',#332,#262,#263);
#221=AXIS2_PLACEMENT_3D('',#336,#266,#267);
#222=AXIS2_PLACEMENT_3D('',#338,#269,#270);
#223=AXIS2_PLACEMENT_3D('',#367,#271,#272);
#224=AXIS2_PLACEMENT_3D('',#371,#273,#274);
#225=DIRECTION('axis',(0.,0.,1.));
#226=DIRECTION('refdir',(1.,0.,0.));
#227=DIRECTION('center_axis',(1.74173703124761E-16,0.,1.));
#228=DIRECTION('ref_axis',(-1.,0.,0.));
#229=DIRECTION('center_axis',(0.,0.,-1.));
#230=DIRECTION('ref_axis',(-1.,0.,0.));
#231=DIRECTION('center_axis',(1.,-3.02828769509223E-16,0.));
#232=DIRECTION('ref_axis',(0.,0.,-1.));
#233=DIRECTION('',(0.,0.,-1.));
#234=DIRECTION('',(3.02828769509223E-16,1.,0.));
#235=DIRECTION('',(0.,0.,-1.));
#236=DIRECTION('center_axis',(0.5,0.866025403784439,0.));
#237=DIRECTION('ref_axis',(0.,0.,1.));
#238=DIRECTION('',(0.,0.,-1.));
#239=DIRECTION('',(-0.866025403784439,0.5,0.));
#240=DIRECTION('center_axis',(-0.5,0.866025403784439,0.));
#241=DIRECTION('ref_axis',(0.,0.,1.));
#242=DIRECTION('',(0.,0.,-1.));
#243=DIRECTION('',(-0.866025403784439,-0.5,0.));
#244=DIRECTION('center_axis',(0.,0.,-1.));
#245=DIRECTION('ref_axis',(-1.,0.,0.));
#246=DIRECTION('center_axis',(0.,0.,-1.));
#247=DIRECTION('ref_axis',(-1.,0.,0.));
#248=DIRECTION('center_axis',(0.,0.,1.));
#249=DIRECTION('ref_axis',(-1.,0.,0.));
#250=DIRECTION('center_axis',(0.,0.,-1.));
#251=DIRECTION('ref_axis',(-1.,0.,0.));
#252=DIRECTION('center_axis',(0.,0.,1.));
#253=DIRECTION('ref_axis',(-1.,0.,0.));
#254=DIRECTION('center_axis',(0.,0.,1.));
#255=DIRECTION('ref_axis',(-1.,0.,0.));
#256=DIRECTION('center_axis',(0.,0.,-1.));
#257=DIRECTION('ref_axis',(-1.,0.,0.));
#258=DIRECTION('center_axis',(-1.,2.01885846339482E-16,0.));
#259=DIRECTION('ref_axis',(0.,0.,1.));
#260=DIRECTION('',(0.,0.,-1.));
#261=DIRECTION('',(-2.01885846339482E-16,-1.,0.));
#262=DIRECTION('center_axis',(-0.5,-0.866025403784439,0.));
#263=DIRECTION('ref_axis',(0.,0.,1.));
#264=DIRECTION('',(0.,0.,-1.));
#265=DIRECTION('',(0.866025403784438,-0.5,0.));
#266=DIRECTION('center_axis',(0.5,-0.866025403784439,0.));
#267=DIRECTION('ref_axis',(0.,0.,-1.));
#268=DIRECTION('',(0.866025403784439,0.5,0.));
#269=DIRECTION('center_axis',(0.,0.,1.));
#270=DIRECTION('ref_axis',(1.,0.,0.));
#271=DIRECTION('center_axis',(0.,0.,-1.));
#272=DIRECTION('ref_axis',(1.,0.,0.));
#273=DIRECTION('center_axis',(0.,0.,-1.));
#274=DIRECTION('ref_axis',(-1.,0.,0.));
#275=CARTESIAN_POINT('',(0.,0.,0.));
#276=CARTESIAN_POINT('Origin',(-2.17717128905951E-17,0.,-0.125));
#277=CARTESIAN_POINT('',(-0.1875,0.108253175473055,-0.0334936490538905));
#278=CARTESIAN_POINT('',(-0.1875,-0.108253175473055,-0.0334936490538904));
#279=CARTESIAN_POINT('Ctrl Pts',(-0.1875,0.108253175473055,-0.0334936490538905));
#280=CARTESIAN_POINT('Ctrl Pts',(-0.1875,2.73184799366426E-18,-0.0876202367904179));
#281=CARTESIAN_POINT('Ctrl Pts',(-0.1875,-0.108253175473055,-0.0334936490538904));
#282=CARTESIAN_POINT('',(1.67401835719157E-19,0.21650635094611,-0.0334936490538905));
#283=CARTESIAN_POINT('Ctrl Pts',(1.67401835719157E-19,0.21650635094611,
-0.0334936490538905));
#284=CARTESIAN_POINT('Ctrl Pts',(-0.09375,0.162379763209582,-0.0876202367904178));
#285=CARTESIAN_POINT('Ctrl Pts',(-0.1875,0.108253175473055,-0.0334936490538905));
#286=CARTESIAN_POINT('',(0.1875,0.108253175473055,-0.0334936490538905));
#287=CARTESIAN_POINT('Ctrl Pts',(0.1875,0.108253175473055,-0.0334936490538905));
#288=CARTESIAN_POINT('Ctrl Pts',(0.09375,0.162379763209582,-0.0876202367904179));
#289=CARTESIAN_POINT('Ctrl Pts',(1.67401835719157E-19,0.21650635094611,
-0.0334936490538905));
#290=CARTESIAN_POINT('',(0.1875,-0.108253175473055,-0.0334936490538906));
#291=CARTESIAN_POINT('Ctrl Pts',(0.1875,-0.108253175473055,-0.0334936490538906));
#292=CARTESIAN_POINT('Ctrl Pts',(0.1875,-5.46369598732853E-17,-0.087620236790418));
#293=CARTESIAN_POINT('Ctrl Pts',(0.1875,0.108253175473055,-0.0334936490538905));
#294=CARTESIAN_POINT('',(-9.83465277719135E-17,-0.21650635094611,-0.0334936490538905));
#295=CARTESIAN_POINT('Ctrl Pts',(-9.83465277719135E-17,-0.21650635094611,
-0.0334936490538905));
#296=CARTESIAN_POINT('Ctrl Pts',(0.0937499999999998,-0.162379763209582,
-0.0876202367904179));
#297=CARTESIAN_POINT('Ctrl Pts',(0.1875,-0.108253175473055,-0.0334936490538906));
#298=CARTESIAN_POINT('Ctrl Pts',(-0.1875,-0.108253175473055,-0.0334936490538904));
#299=CARTESIAN_POINT('Ctrl Pts',(-0.0937500000000001,-0.162379763209582,
-0.0876202367904178));
#300=CARTESIAN_POINT('Ctrl Pts',(-9.83465277719135E-17,-0.21650635094611,
-0.0334936490538905));
#301=CARTESIAN_POINT('',(-0.25,0.,0.));
#302=CARTESIAN_POINT('Origin',(0.,0.,0.));
#303=CARTESIAN_POINT('Origin',(0.1875,-0.108253175473055,0.));
#304=CARTESIAN_POINT('',(0.1875,0.108253175473055,-0.375));
#305=CARTESIAN_POINT('',(0.1875,0.108253175473055,0.));
#306=CARTESIAN_POINT('',(0.1875,-0.108253175473055,-0.375));
#307=CARTESIAN_POINT('',(0.1875,0.108253175473055,-0.375));
#308=CARTESIAN_POINT('',(0.1875,-0.108253175473055,0.));
#309=CARTESIAN_POINT('Origin',(0.1875,0.108253175473055,0.));
#310=CARTESIAN_POINT('',(1.67401835719162E-19,0.21650635094611,-0.375));
#311=CARTESIAN_POINT('',(1.67401835719162E-19,0.21650635094611,0.));
#312=CARTESIAN_POINT('',(1.67401835719162E-19,0.21650635094611,-0.375));
#313=CARTESIAN_POINT('Origin',(1.67401835719162E-19,0.21650635094611,0.));
#314=CARTESIAN_POINT('',(-0.1875,0.108253175473055,-0.375));
#315=CARTESIAN_POINT('',(-0.1875,0.108253175473055,0.));
#316=CARTESIAN_POINT('',(-0.1875,0.108253175473055,-0.375));
#317=CARTESIAN_POINT('Origin',(0.,0.,-0.0155));
#318=CARTESIAN_POINT('',(0.3125,-3.82689485569493E-17,0.));
#319=CARTESIAN_POINT('Origin',(0.,0.,0.));
#320=CARTESIAN_POINT('',(0.3435,4.20652282537987E-17,-0.031));
#321=CARTESIAN_POINT('Origin',(0.,0.,-0.031));
#322=CARTESIAN_POINT('Origin',(0.,0.,0.));
#323=CARTESIAN_POINT('',(0.3435,4.20652282537987E-17,-0.758028374898958));
#324=CARTESIAN_POINT('',(-0.3435,0.,-0.758028374898958));
#325=CARTESIAN_POINT('Origin',(0.,0.,-0.758028374898958));
#326=CARTESIAN_POINT('Origin',(0.,0.,-0.758028374898958));
#327=CARTESIAN_POINT('Origin',(0.,0.,0.));
#328=CARTESIAN_POINT('Origin',(-0.1875,0.108253175473055,0.));
#329=CARTESIAN_POINT('',(-0.1875,-0.108253175473055,-0.375));
#330=CARTESIAN_POINT('',(-0.1875,-0.108253175473055,0.));
#331=CARTESIAN_POINT('',(-0.1875,-0.108253175473055,-0.375));
#332=CARTESIAN_POINT('Origin',(-0.1875,-0.108253175473055,0.));
#333=CARTESIAN_POINT('',(-9.83465277719135E-17,-0.21650635094611,-0.375));
#334=CARTESIAN_POINT('',(-9.83465277719135E-17,-0.21650635094611,0.));
#335=CARTESIAN_POINT('',(-9.83465277719135E-17,-0.21650635094611,-0.375));
#336=CARTESIAN_POINT('Origin',(-9.83465277719135E-17,-0.21650635094611,
0.));
#337=CARTESIAN_POINT('',(0.1875,-0.108253175473055,-0.375));
#338=CARTESIAN_POINT('Origin',(-1.09273919746571E-17,1.45698559662094E-17,
-0.375));
#339=CARTESIAN_POINT('Ctrl Pts',(-0.100000000000001,0.,-0.938));
#340=CARTESIAN_POINT('Ctrl Pts',(-0.100000000000001,-0.100000000000001,
-0.938));
#341=CARTESIAN_POINT('Ctrl Pts',(0.,-0.100000000000001,-0.938));
#342=CARTESIAN_POINT('Ctrl Pts',(0.100000000000001,-0.100000000000001,-0.938));
#343=CARTESIAN_POINT('Ctrl Pts',(0.100000000000001,0.,-0.938));
#344=CARTESIAN_POINT('Ctrl Pts',(0.100000000000001,0.100000000000001,-0.938));
#345=CARTESIAN_POINT('Ctrl Pts',(0.,0.100000000000001,-0.938));
#346=CARTESIAN_POINT('Ctrl Pts',(-0.100000000000001,0.100000000000001,-0.938));
#347=CARTESIAN_POINT('Ctrl Pts',(-0.100000000000001,0.,-0.938));
#348=CARTESIAN_POINT('Ctrl Pts',(-0.268598935191241,0.,-0.911400377981806));
#349=CARTESIAN_POINT('Ctrl Pts',(-0.268598935191241,-0.268598935191241,
-0.911400377981806));
#350=CARTESIAN_POINT('Ctrl Pts',(0.,-0.268598935191241,-0.911400377981806));
#351=CARTESIAN_POINT('Ctrl Pts',(0.268598935191241,-0.268598935191241,-0.911400377981806));
#352=CARTESIAN_POINT('Ctrl Pts',(0.268598935191241,0.,-0.911400377981806));
#353=CARTESIAN_POINT('Ctrl Pts',(0.268598935191241,0.268598935191241,-0.911400377981806));
#354=CARTESIAN_POINT('Ctrl Pts',(0.,0.268598935191241,-0.911400377981806));
#355=CARTESIAN_POINT('Ctrl Pts',(-0.268598935191241,0.268598935191241,-0.911400377981806));
#356=CARTESIAN_POINT('Ctrl Pts',(-0.268598935191241,0.,-0.911400377981806));
#357=CARTESIAN_POINT('Ctrl Pts',(-0.3435,0.,-0.758028374898958));
#358=CARTESIAN_POINT('Ctrl Pts',(-0.3435,-0.3435,-0.758028374898958));
#359=CARTESIAN_POINT('Ctrl Pts',(0.,-0.3435,-0.758028374898958));
#360=CARTESIAN_POINT('Ctrl Pts',(0.3435,-0.3435,-0.758028374898958));
#361=CARTESIAN_POINT('Ctrl Pts',(0.3435,0.,-0.758028374898958));
#362=CARTESIAN_POINT('Ctrl Pts',(0.3435,0.3435,-0.758028374898958));
#363=CARTESIAN_POINT('Ctrl Pts',(0.,0.3435,-0.758028374898958));
#364=CARTESIAN_POINT('Ctrl Pts',(-0.3435,0.3435,-0.758028374898958));
#365=CARTESIAN_POINT('Ctrl Pts',(-0.3435,0.,-0.758028374898958));
#366=CARTESIAN_POINT('',(-0.1,0.,-0.938));
#367=CARTESIAN_POINT('Origin',(0.,0.,-0.938));
#368=CARTESIAN_POINT('Ctrl Pts',(-0.100000000000001,0.,-0.938));
#369=CARTESIAN_POINT('Ctrl Pts',(-0.268598935191241,0.,-0.911400377981806));
#370=CARTESIAN_POINT('Ctrl Pts',(-0.3435,0.,-0.758028374898958));
#371=CARTESIAN_POINT('Origin',(0.,0.,-0.938));
#372=UNCERTAINTY_MEASURE_WITH_UNIT(LENGTH_MEASURE(0.000393700787401575),
#376,'DISTANCE_ACCURACY_VALUE',
'Maximum model space distance between geometric entities at asserted c
onnectivities');
#373=UNCERTAINTY_MEASURE_WITH_UNIT(LENGTH_MEASURE(1.E-6),#377,
'DISTANCE_ACCURACY_VALUE',
'Maximum model space distance between geometric entities at asserted c
onnectivities');
#374=(
GEOMETRIC_REPRESENTATION_CONTEXT(3)
GLOBAL_UNCERTAINTY_ASSIGNED_CONTEXT((#372))
GLOBAL_UNIT_ASSIGNED_CONTEXT((#376,#382,#379))
REPRESENTATION_CONTEXT('','3D')
);
#375=(
GEOMETRIC_REPRESENTATION_CONTEXT(3)
GLOBAL_UNCERTAINTY_ASSIGNED_CONTEXT((#373))
GLOBAL_UNIT_ASSIGNED_CONTEXT((#377,#382,#379))
REPRESENTATION_CONTEXT('','3D')
);
#376=(
CONVERSION_BASED_UNIT('__CONSTANT UNIT inch',#378)
LENGTH_UNIT()
NAMED_UNIT(#381)
);
#377=(
LENGTH_UNIT()
NAMED_UNIT(*)
SI_UNIT(.MILLI.,.METRE.)
);
#378=LENGTH_MEASURE_WITH_UNIT(LENGTH_MEASURE(25.4),#377);
#379=(
NAMED_UNIT(*)
SI_UNIT($,.STERADIAN.)
SOLID_ANGLE_UNIT()
);
#380=DIMENSIONAL_EXPONENTS(0.,0.,0.,0.,0.,0.,0.);
#381=DIMENSIONAL_EXPONENTS(1.,0.,0.,0.,0.,0.,0.);
#382=(
CONVERSION_BASED_UNIT('degree',#384)
NAMED_UNIT(#380)
PLANE_ANGLE_UNIT()
);
#383=(
NAMED_UNIT(*)
PLANE_ANGLE_UNIT()
SI_UNIT($,.RADIAN.)
);
#384=PLANE_ANGLE_MEASURE_WITH_UNIT(PLANE_ANGLE_MEASURE(0.01745329252),#383);
#385=SHAPE_DEFINITION_REPRESENTATION(#386,#387);
#386=PRODUCT_DEFINITION_SHAPE('',$,#389);
#387=SHAPE_REPRESENTATION('',(#206),#374);
#388=DESIGN_CONTEXT('part definition',#393,'design');
#389=PRODUCT_DEFINITION('14240','14240',#390,#388);
#390=PRODUCT_DEFINITION_FORMATION('',$,#395);
#391=PRODUCT_RELATED_PRODUCT_CATEGORY('14240','14240',(#395));
#392=APPLICATION_PROTOCOL_DEFINITION('international standard',
'ap203_configuration_controlled_3d_design_of_mechanical_parts_and_asse
mblies_mim_lf',2004,#393);
#393=APPLICATION_CONTEXT(
'Configuration Controlled 3D Design of Mechanical Parts and Assemblies');
#394=MECHANICAL_CONTEXT('part definition',#393,'mechanical');
#395=PRODUCT('14240','14240',$,(#394));
#396=PRESENTATION_STYLE_ASSIGNMENT((#397));
#397=SURFACE_STYLE_USAGE(.BOTH.,#398);
#398=SURFACE_SIDE_STYLE($,(#399));
#399=SURFACE_STYLE_FILL_AREA(#400);
#400=FILL_AREA_STYLE($,(#401));
#401=FILL_AREA_STYLE_COLOUR($,#402);
#402=COLOUR_RGB('',0.949019607843137,0.925490196078431,0.933333333333333);
ENDSEC;
END-ISO-10303-21;
